2

Capo: 2


  Intro 2x: Am  A  F  F
E|-----------------------------------------0------------------------------|
B|-1---1---0---0---1---1--0h1--3--0h1p0----1---1---0---0---1---1---0---0--|
G|-2---2---2---2---2---2----------------2--2---2---2---2---2---2---2---2--|
D|---2---2---2---2---2-----------------------2---2---2---2---2---2---2---2|
A|-0-------0-------0------------------------------------------------------|
E|-----------------------------------------1-------1-------1-------1------|



E|----------------------------------------------------------|
B|-1---1---0---0---1---1--0h1--3--0h1p0----1---1---0---0---1|
G|-2---2---2---2---2---2----------------2--2---2---2---2---2|
D|---2---2---2---2---2-----------------------2---2---2---2-2|
A|-0-------0-------0----------------------------------------|
E|-----------------------------------------1-------1-------1|



      Am A
Eu pensei
                 Am A
Que pudesse esquecer
                 Dm Dm
Certos velhos costumes
      G Em
Eu pensei

Que já nem me lembrasse
               C C (passagem 1)
De coisas passadas

E|----------|
B|-0---0---0|
G|-1---2---4|
D|----------|
A|---2---3-5|
E|-0---0---0|



      Am A
Eu pensei
                Am A
Que pudesse enganar
               Dm Dm
A mim mesma dizendo
F
Que essas coisas da vida em comum
               C C (passagem 1)
Não ficavam marcadas
       Am A
Não pensei
                Am A
Que me fizessem falta
               Dm Dm
Umas poucas palavras
  G    Em
Dessas coisas simples
                      C C (passagem 1)
Que dizemos antes de dormir
  Am  A
De manhã
             Am A
O bom dia na cama
                Dm Dm
A conversa informal
 G    Em
O beijo depois o café
                 C C (passagem 1)
O cigarro e o jornal
 Am        A               Am A
Os costumes me falam de coisas
           Dm    Dm
De fatos antigos
 G                        G   Em
Não me esqueço das tardes alegres
              A     A
Com nossos amigos
 Dm
Um final de programa
   G
Fim de madrugada
  Am
O aconchego na cama
  Am
A luz apagada
 Dm
Essas coisas
                  E
Só mesmo com o tempo
             A A E
Se pode esquecer
   A                                 Bm   B
E então eu me vejo sozinha como estou agora
E
E respiro toda a liberdade
                A   A
Que alguém pode ter
Dm
De repente ser livre
 G
Até me assusta
C
Me aceitar sem você
       Am
Certas vezes me custa
F                          E
Como posso esquecer dos costumes
                             Am A
Se nem mesmo esqueci de você!

E|-----------------------------------------|
B|-1---1---0---0---1---1--0h1--3--0h1p0---1|
G|-2---2---2---2---2---2----------------2-2|
D|---2---2---2---2---2--------------------2|
A|-0-------0-------0----------------------0|
E|-----------------------------------------|

Am|[0,"6.8.10",0,""] A|[0,"3.6.15",0,""]|[0,"3.6.20",0,""]|[0,"6.10.20",0,""] F|[0,"4.6.8",0,""] Dm|[0,"2.4.6",0,""] G|[0,"5.7.9",0,""] Em|[0,"3.5.7",0,""] C|[0,"1.3.5",0,""] E|[0,"3.7.18",0,""] Bm|[0,"7.9.22",0,""] B|[0,"7.21.22",0,""]
|/passaro-de-fogo-teclado-paula-fernandes|Pássaro de fogo|Paula Fernandes|paula-fernandes.jpg |/quando-a-chuva-passar-teclado-paula-fernandes|Quando a chuva passar|Paula Fernandes|paula-fernandes.jpg |/jeito-de-mato-teclado-paula-fernandes|Jeito de mato|Paula Fernandes|paula-fernandes.jpg |/tocando-em-frente-teclado-paula-fernandes|Tocando em frente|Paula Fernandes|paula-fernandes.jpg |/eu-sem-voce-teclado-paula-fernandes|Eu sem você|Paula Fernandes|paula-fernandes.jpg |/todo-seu-teclado-paula-fernandes|Todo seu|Paula Fernandes|paula-fernandes.jpg |/nao-precisa-part-victor-e-leo-teclado-paula-fernandes|Não precisa (part. victor e léo)|Paula Fernandes|paula-fernandes.jpg |/musica-e-rodeio-teclado-paula-fernandes|Música e rodeio|Paula Fernandes|paula-fernandes.jpg |/costumes-teclado-paula-fernandes|Costumes|Paula Fernandes|paula-fernandes.jpg |/seio-de-minas-teclado-paula-fernandes|Seio de minas|Paula Fernandes|paula-fernandes.jpg |/sem-voce-teclado-paula-fernandes|Sem você|Paula Fernandes|paula-fernandes.jpg |/pirraca-teclado-paula-fernandes|Pirraça|Paula Fernandes|paula-fernandes.jpg |/turbilhao-de-sensacoes-teclado-paula-fernandes|Turbilhão de sensações|Paula Fernandes|paula-fernandes.jpg |/pra-voce-teclado-paula-fernandes|Pra você|Paula Fernandes|paula-fernandes.jpg |/sensacoes-teclado-paula-fernandes|Sensações|Paula Fernandes|paula-fernandes.jpg 9
|/teclado-marilia-mendonca|Marilia Mendonça||marilia-mendonca.jpg |/teclado-jorge-e-mateus|Jorge e Mateus||jorge-e-mateus.jpg |/teclado-victor-leo|Victor e Leo||victor-leo.jpg |/teclado-luan-santana|Luan Santana||luan-santana.jpg |/teclado-henrique-e-juliano|Henrique e Juliano||henrique-e-juliano.jpg |/teclado-maiara-e-maraisa|Maiara e Maraisa||maiara-e-maraisa.jpg |/teclado-bruno-e-marrone|Bruno e Marrone||bruno-e-marrone.jpg |/teclado-roberto-carlos|Roberto Carlos||roberto-carlos.jpg |/teclado-matheus-e-kauan|Matheus e Kauan||matheus-e-kauan.jpg |/teclado-zeze-di-camargo-e-luciano|Zezé Di Camargo e Luciano||zeze-di-camargo-e-luciano.jpg |/teclado-ivete-sangalo|Ivete Sangalo||ivete-sangalo.jpg |/teclado-gusttavo-lima|Gusttavo Lima||gusttavo-lima.jpg |/teclado-cristiano-araujo|Cristiano Araújo||cristiano-araujo.jpg |/teclado-eduardo-costa|Eduardo Costa||eduardo-costa.jpg |/teclado-ana-carolina|Ana Carolina||ana-carolina.jpg 4