Charlie Brown Jr.
notas:Fm Bb

intro


e|------------------------|
B|------------------------|
G|-------6-----8----------|( a musica toda)
D|-----8---8-6---6-6/8----|
A|---8--------------------|
E|-6----------------------|


refraõ:

e|---------|----------|
B|---------|----------|
G|---------|-3-3-3-3--|
D|-3-3-3-3-|-3-3-3-3--|
A|-3-3-3-3-|-1-1-1-1--|
E|-1-1-1-1-|----------|


(2º parte com o refrão)


B|-2/6-6-6-6-6-6/4-4-4-4/3~---|


solo


e|------------------------------------------------|
B|---------------13----13-----13----12-----12~~---|
G|----------6/10----10-----10----10----10~~-------|
D|-6^^-5^^----------------------------------------|
A|------------------------------------------------|
E|------------------------------------------------|


Fm|[0,"4.8.18",0,""] Bb|[0,"9.11.19",0,""]
12-1-teclado-charlie-brown-jr|12 + 1|Charlie Brown Jr.|charlie-brown-jr.jpg 121-doze-mais-um-teclado-charlie-brown-jr|12+1 (doze mais um)|Charlie Brown Jr.|charlie-brown-jr.jpg 333-teclado-charlie-brown-jr|333|Charlie Brown Jr.|charlie-brown-jr.jpg a-banca-teclado-charlie-brown-jr|A banca|Charlie Brown Jr.|charlie-brown-jr.jpg a-cera-teclado-charlie-brown-jr|A cera|Charlie Brown Jr.|charlie-brown-jr.jpg a-estrada-teclado-charlie-brown-jr|A estrada|Charlie Brown Jr.|charlie-brown-jr.jpg a-grande-volta-teclado-charlie-brown-jr|A grande volta|Charlie Brown Jr.|charlie-brown-jr.jpg abagabalo-teclado-charlie-brown-jr|Abagabalo|Charlie Brown Jr.|charlie-brown-jr.jpg abrir-seus-olhos-teclado-charlie-brown-jr|Abrir seus olhos|Charlie Brown Jr.|charlie-brown-jr.jpg aquela-paz-teclado-charlie-brown-jr|Aquela paz|Charlie Brown Jr.|charlie-brown-jr.jpg aquele-velho-carteado-e-alguma-manobrinhas-teclado-charlie-brown-jr|Aquele velho carteado e alguma manobrinh|Charlie Brown Jr.|charlie-brown-jr.jpg aquele-velho-carteado-e-algumas-manobrinhas-teclado-charlie-brown-jr|Aquele Velho Carteado e Algumas Manobrin|Charlie Brown Jr.|charlie-brown-jr.jpg baader-meinhof-blues-teclado-charlie-brown-jr|Baader-meinhof blues|Charlie Brown Jr.|charlie-brown-jr.jpg bahia-teclado-charlie-brown-jr|Bahia|Charlie Brown Jr.|charlie-brown-jr.jpg be-myself-teclado-charlie-brown-jr|Be myself|Charlie Brown Jr.|charlie-brown-jr.jpg 177
teclado-legiao-urbana|Legião Urbana|legiao-urbana.jpg teclado-cassia-eller|Cássia Eller|cassia-eller.jpg teclado-natiruts|Natiruts|natiruts.jpg?42 teclado-capital-inicial|Capital Inicial|capital-inicial.jpg teclado-jorge-e-mateus|Jorge e Mateus|jorge-e-mateus.jpg teclado-nando-reis|Nando Reis|nando-reis.jpg teclado-skank|Skank|skank.jpg teclado-o-rappa|O Rappa|o-rappa.jpg teclado-henrique-e-juliano|Henrique e Juliano|henrique-e-juliano.jpg teclado-jota-quest|Jota Quest|jota-quest.jpg teclado-marilia-mendonca|Marilia Mendonça|marilia-mendonca.jpg?79 teclado-engenheiros-do-hawaii|Engenheiros do Hawaii|engenheiros-do-hawaii.jpg teclado-matheus-e-kauan|Matheus e Kauan|matheus-e-kauan.jpg?53 teclado-djavan|Djavan|djavan.jpg teclado-armandinho|Armandinho|armandinho.jpg 50