Só lembrando q Cbjr afina meio tom abaixo

riff1

Eb|------------------------------
Bb|------------------------------
Gb|-------------12-12-12-12-12-12- 4x
Db|-14141214---------------------
Ab|-14121414---------------------
Eb|-12121412---------------------


riff2

Eb|------------
Bb|------------
Gb|------------
Db|-777-88-555- 4x
Ab|-777-88-555-
Eb|-555-66-333-


riff3

Eb|-------
Bb|-------
Gb|-------
Db|---5-7-
Ab|---5-7- 2x
Eb|---3-5-



Eb|---------------------------
Bb|---------------------------
Gb|--------------------------- 2x com phaser
Db|---------------------------
Ab|-----3-------3-------------
Eb|-3-5---5-3-5---3-5~--------


solo[ta meio por cima,ñ ta igual]

Eb|--------------------------------------/17-17h16h15h14-------------------------------------------
Bb|--12~~~-----------3h5h6-3h5h6-3h5h6~~----------------16h15h14h13--------------------------------
Gb|--14b~~-12-14~~-------------------------------------------------16h15h12h13---------------------
Db|---------------------------------------------------------------------------15h14h13h12----------
Ab|--------------------------------------------------------------------------------------15h14h13h12


cont..

Eb|14h13h12h11--------------------------------------------------------------------------------------


só colocar os riffs na ordem certa
|/ceu-azul-teclado-charlie-brown-jr|Céu azul|Charlie Brown Jr.|charlie-brown-jr.jpg |/pra-nao-dizer-que-nao-falei-das-flores-teclado-charlie-brown-jr|Pra não dizer que não falei das flores|Charlie Brown Jr.|charlie-brown-jr.jpg |/corra-vagabundo-teclado-charlie-brown-jr|Corra vagabundo|Charlie Brown Jr.|charlie-brown-jr.jpg |/so-os-loucos-sabem-sem-capotraste-teclado-charlie-brown-jr|Só os loucos sabem (sem capotraste)|Charlie Brown Jr.|charlie-brown-jr.jpg |/viver-dias-de-sol-teclado-charlie-brown-jr|Viver dias de sol|Charlie Brown Jr.|charlie-brown-jr.jpg |/cidade-grande-teclado-charlie-brown-jr|Cidade grande|Charlie Brown Jr.|charlie-brown-jr.jpg |/dias-de-luta-dias-de-gloria-teclado-charlie-brown-jr|Dias de luta, dias de glória|Charlie Brown Jr.|charlie-brown-jr.jpg |/local-teclado-charlie-brown-jr|Local|Charlie Brown Jr.|charlie-brown-jr.jpg |/nao-deixe-o-mar-te-engolir-teclado-charlie-brown-jr|Não deixe o mar te engolir|Charlie Brown Jr.|charlie-brown-jr.jpg |/nao-e-serio-teclado-charlie-brown-jr|Não é sério|Charlie Brown Jr.|charlie-brown-jr.jpg |/aquela-paz-teclado-charlie-brown-jr|Aquela paz|Charlie Brown Jr.|charlie-brown-jr.jpg |/ela-vai-voltar-teclado-charlie-brown-jr|Ela vai voltar|Charlie Brown Jr.|charlie-brown-jr.jpg |/direto-e-reto-sempre-teclado-charlie-brown-jr|Direto e reto sempre|Charlie Brown Jr.|charlie-brown-jr.jpg |/so-os-loucos-sabem-teclado-charlie-brown-jr|Só os loucos sabem|Charlie Brown Jr.|charlie-brown-jr.jpg |/peso-da-batida-do-errado-que-deu-certo-teclado-charlie-brown-jr|Peso da batida do errado que deu certo|Charlie Brown Jr.|charlie-brown-jr.jpg 12
|/teclado-legiao-urbana|Legião Urbana||legiao-urbana.jpg |/teclado-cassia-eller|Cássia Eller||cassia-eller.jpg |/teclado-natiruts|Natiruts||natiruts.jpg |/teclado-capital-inicial|Capital Inicial||capital-inicial.jpg |/teclado-jorge-e-mateus|Jorge e Mateus||jorge-e-mateus.jpg |/teclado-nando-reis|Nando Reis||nando-reis.jpg |/teclado-skank|Skank||skank.jpg |/teclado-o-rappa|O Rappa||o-rappa.jpg |/teclado-henrique-e-juliano|Henrique e Juliano||henrique-e-juliano.jpg |/teclado-jota-quest|Jota Quest||jota-quest.jpg |/teclado-marilia-mendonca|Marilia Mendonça||marilia-mendonca.jpg |/teclado-engenheiros-do-hawaii|Engenheiros do Hawaii||engenheiros-do-hawaii.jpg |/teclado-matheus-e-kauan|Matheus e Kauan||matheus-e-kauan.jpg |/teclado-armandinho|Armandinho||armandinho.jpg |/teclado-djavan|Djavan||djavan.jpg 4