Charlie Brown Jr.
(intro)  G#  A     E


E|----------------------------------------------|
B|----------------------------------------------|
G|----------------------------------------------|
D|------2---4--------4--------------------------|
A|--2h4---4------2h4-----------2---2-2-2-2-2-2--|
E|------------0----------0-2h4---4--------------|



E|----------------------------------------|
B|----------------------------------------|
G|---------------------------------4-4-4--|
D|------2---4--------4-------------4-4-4--|
A|--2h4---4------2h4-----------2---2-2-2--|
E|------------0----------0-2h4---4--------|


( C#m  E  G#m  B )


E|-------------------------------------------
B|---------------------12-12-12-10--9-10--7--
G|--8/9-9-9-9--4-4-4-4--x--x--x--x--x--x--x--
D|--x/x-x-x-x--x-x-x-x--9--9--9--7--6--7--4--
A|--6/7-7-7-7--2-2-2-2-----------------------
E|-------------------------------------------



E|------------------------------7--------------7--------
B|--------------------------5-----5-4-5----5-----5-4-5--
G|--8/9-9-9-9-11-9-8-9---4---4----------4---4----------
D|--x/x-x-x-x--x-x-x-x---------------------------------
A|--6/7-7-7-7--9-7-6-7---------------------------------
E|------------------------------------------------------



E|--------7----------12----11----12--------12----19-
B|----5-----5-4-5/12----12----12----12--12----12----
G|--4---4-------------------------------------------
D|--------------------------------------------------
A|--------------------------------------------------
E|--------------------------------------------------



E|-------------------------------
B|-------------------------------
G|--119-9-8-9--4-4-4-4--4-4-4-4-
D|---xx-x-x-x--x-x-4-4--4-4-4-4-
A|---97-7-6-7--2-2-2-2--2-2-2-2-
E|-------------------------------



E|-------------------------------
B|------------------------------
G|--119-9-8-9--4-4-4-4--4-4-4-4
D|---xx-x-x-x--x-x-4-4--4-4-4-4
A|---97-7-6-7--2-2-2-2--2-2-2-2
E|------------------------------


Am       Bb              F
   Eu procurei em outros corpos encontrar você
Am                Bb                  F
   Eu procurei um bom motivo pra não,   pra não falar
Am                Bb                     F
   Eu procurei me manter afastado, mas você me conhece
                     Am  Bb      F (abafado)
Eu faço tudo errado,     Tudo errado

Am          Bb           F
   Fim de semana, eu sei lá, vou viajar, vou me embalar
            Am                  Bb
Vou dar uma festa, vou tocar um puteiro
               F
Eu vou te esquecer nem que for

       Am         Bb        F
Só por uma noite,    só por uma noite
       Am         Bb        F
Só por uma noite,    só por uma noite

  C D          F         C D      F
    Mas só de ouvir a sua voz  já me sinto bem
  Am       C
    Mas se é difícil pra você, tudo bem
  Am       C
    Muita gente se diverte com o que tem
 C D          F         C D      F
       Só de ouvir a sua voz já me sinto bem
  Am       C
    Mas se é difícil pra você tudo bem
  Am       C
    Quando a gente se diverte com o que tem

  Am       C
       Se diverte com o que tem
        Am         Bb        F
Só por uma noite

(repete intro)  G#  A     E

Am       Bb              F
   Eu procurei abrir os olhos, enxergar você
Am                Bb                  F
   Eu procurei um bom motivo pra não,   pra não estar lá
Am                Bb                     F
   Eu procurei me manter afastado, mas você me conhece
                    Am  Bb      F (abafado)
Eu faço tudo errado     tudo errado

Am          Bb           F
   Fim de semana, eu sei lá, vou viajar, vou me embalar
            Am                  Bb
Vou dar uma festa, vou tocar um puteiro
               F
Eu vou te esquecer nem que for

       Am         Bb        F
Só por uma noite,    só por uma noite
       Am         Bb        F
Só por uma noite,    só por uma noite

  C D          F          C D      F
      Mas só de ouvir a sua voz já me sinto bem
  Am       C
    Mas se é difícil pra você, tudo bem
  Am       C
    Muita gente se diverte com o que tem
  C D          F          C D      F
          Só de ouvir a sua voz já me sinto bem
  Am       C
    Mas se é difícil pra você tudo bem
  Am       C
    Quando a gente se diverte com o que tem
  Am       C                             Am
        Se diverte com o que tem eu digo só por uma noite

(solo final)  Am     Bb    C D    F
(faz essa base 3x + o solo)

E|----------------------------------------------
B|--9-----7-9-9--7/9-7-------------9-----7-9-9--
G|--9-8-9---9-9--------9-9/11-9----9-8-9---9-9--
D|----------------------------------------------
A|----------------------------------------------
E|----------------------------------------------



E|--------7--------------7-------
B|----5-----5-4-5----5-----5-4-5-
G|--4---4----------4---4---------
D|-------------------------------
A|-------------------------------
E|-------------------------------



E|--------7----------12----11----12--------12----19-
B|----5-----5-4-5/12----12----12----12--12----12----
G|--4---4-------------------------------------------
D|--------------------------------------------------
A|--------------------------------------------------
E|--------------------------------------------------
G#|[0,"8.18.21",0,""] A|[0,"3.6.15",0,""]|[0,"3.6.20",0,""]|[0,"6.10.20",0,""] E|[0,"3.7.18",0,""] C#m|[0,"3.15.18",0,""] G#m|[0,"7.18.21",0,""] B|[0,"7.21.22",0,""] Am|[0,"6.8.10",0,""] Bb|[0,"9.11.19",0,""] F|[0,"4.6.8",0,""] C|[0,"1.3.5",0,""] D|[0,"2.6.17",0,""]
12-1-teclado-charlie-brown-jr|12 + 1|Charlie Brown Jr.|charlie-brown-jr.jpg 121-doze-mais-um-teclado-charlie-brown-jr|12+1 (doze mais um)|Charlie Brown Jr.|charlie-brown-jr.jpg 333-teclado-charlie-brown-jr|333|Charlie Brown Jr.|charlie-brown-jr.jpg a-banca-teclado-charlie-brown-jr|A banca|Charlie Brown Jr.|charlie-brown-jr.jpg a-cera-teclado-charlie-brown-jr|A cera|Charlie Brown Jr.|charlie-brown-jr.jpg a-estrada-teclado-charlie-brown-jr|A estrada|Charlie Brown Jr.|charlie-brown-jr.jpg a-grande-volta-teclado-charlie-brown-jr|A grande volta|Charlie Brown Jr.|charlie-brown-jr.jpg abagabalo-teclado-charlie-brown-jr|Abagabalo|Charlie Brown Jr.|charlie-brown-jr.jpg abrir-seus-olhos-teclado-charlie-brown-jr|Abrir seus olhos|Charlie Brown Jr.|charlie-brown-jr.jpg aquela-paz-teclado-charlie-brown-jr|Aquela paz|Charlie Brown Jr.|charlie-brown-jr.jpg aquele-velho-carteado-e-alguma-manobrinhas-teclado-charlie-brown-jr|Aquele velho carteado e alguma manobrinh|Charlie Brown Jr.|charlie-brown-jr.jpg aquele-velho-carteado-e-algumas-manobrinhas-teclado-charlie-brown-jr|Aquele Velho Carteado e Algumas Manobrin|Charlie Brown Jr.|charlie-brown-jr.jpg baader-meinhof-blues-teclado-charlie-brown-jr|Baader-meinhof blues|Charlie Brown Jr.|charlie-brown-jr.jpg bahia-teclado-charlie-brown-jr|Bahia|Charlie Brown Jr.|charlie-brown-jr.jpg be-myself-teclado-charlie-brown-jr|Be myself|Charlie Brown Jr.|charlie-brown-jr.jpg 177
teclado-legiao-urbana|Legião Urbana|legiao-urbana.jpg teclado-cassia-eller|Cássia Eller|cassia-eller.jpg teclado-natiruts|Natiruts|natiruts.jpg?42 teclado-capital-inicial|Capital Inicial|capital-inicial.jpg teclado-jorge-e-mateus|Jorge e Mateus|jorge-e-mateus.jpg teclado-nando-reis|Nando Reis|nando-reis.jpg teclado-skank|Skank|skank.jpg teclado-o-rappa|O Rappa|o-rappa.jpg teclado-henrique-e-juliano|Henrique e Juliano|henrique-e-juliano.jpg teclado-jota-quest|Jota Quest|jota-quest.jpg teclado-marilia-mendonca|Marilia Mendonça|marilia-mendonca.jpg?79 teclado-engenheiros-do-hawaii|Engenheiros do Hawaii|engenheiros-do-hawaii.jpg teclado-matheus-e-kauan|Matheus e Kauan|matheus-e-kauan.jpg?53 teclado-djavan|Djavan|djavan.jpg teclado-armandinho|Armandinho|armandinho.jpg 50