Charlie Brown Jr.
Afinação D com a corda E afinada 1tom abaixo
Intro: 

e|------------------------------------------------------------------------------------|
B|-----------------------------------------------------------------------------------|
G|-----------------------------------------------------------------------------------|
D|-----------------------------------------------------------------------------------|
A| --3h5--3h5-----5/3------------------------------------------------------------|
E|---------------0---------7--5--3-- 0---------------------------------------------|



e|----------------------------------------------------------------------------------------------|
B|----------------------------------------------------------------------------------------------|
G|----------------------------------------------------------------------------------------------|
D|--7---------------7---------------7---------------7------3--3--3/6--6--6/5---5/3--------|
A|--3h5------------3h5------------3h5------------3h5---3--3--3/6--6--6/5---5/3--------|
E|--0---------------0---------------0----------------0-----3--3--3/6--6--6/5---5/3--------|



Base (fica a música inteira nessa base):


e|----------8-----------------8---------8-------------------------------------------|
B|------------10--8---8-------10--------10--8-----------------------------------|
G|-------------------9---9-----------------------9---------------------------------|
D|-----------------------------------------------------------------------------------|
A|-----------------------------------------------------------------------------------|
E|---0-------------------------------------------------------------------------------|



Refrão:

e|----------------------------------------------------------------------------------------------|
B|----------------------------------------------------------------------------------------------|
G|----------------------------------------------------------------------------------------------|
D|--7---------------7---------------7---------------7------3--3--3/6--6--6/5---5/3--------|
A|--3h5------------3h5------------3h5------------3h5---3--3--3/6--6--6/5---5/3--------|
E|--0---------------0---------------0----------------0-----3--3--3/6--6--6/5---5/3--------|
12-1-tablatura-charlie-brown-jr|12 + 1|Charlie Brown Jr.|charlie-brown-jr.jpg 121-doze-mais-um-tablatura-charlie-brown-jr|12+1 (doze mais um)|Charlie Brown Jr.|charlie-brown-jr.jpg 333-tablatura-charlie-brown-jr|333|Charlie Brown Jr.|charlie-brown-jr.jpg a-banca-tablatura-charlie-brown-jr|A banca|Charlie Brown Jr.|charlie-brown-jr.jpg a-cera-tablatura-charlie-brown-jr|A cera|Charlie Brown Jr.|charlie-brown-jr.jpg a-estrada-tablatura-charlie-brown-jr|A estrada|Charlie Brown Jr.|charlie-brown-jr.jpg a-grande-volta-tablatura-charlie-brown-jr|A grande volta|Charlie Brown Jr.|charlie-brown-jr.jpg abagabalo-tablatura-charlie-brown-jr|Abagabalo|Charlie Brown Jr.|charlie-brown-jr.jpg abrir-seus-olhos-tablatura-charlie-brown-jr|Abrir seus olhos|Charlie Brown Jr.|charlie-brown-jr.jpg aquela-paz-tablatura-charlie-brown-jr|Aquela paz|Charlie Brown Jr.|charlie-brown-jr.jpg aquele-velho-carteado-e-alguma-manobrinhas-tablatura-charlie-brown-jr|Aquele velho carteado e alguma manobrinh|Charlie Brown Jr.|charlie-brown-jr.jpg aquele-velho-carteado-e-algumas-manobrinhas-tablatura-charlie-brown-jr|Aquele Velho Carteado e Algumas Manobrin|Charlie Brown Jr.|charlie-brown-jr.jpg baader-meinhof-blues-tablatura-charlie-brown-jr|Baader-meinhof blues|Charlie Brown Jr.|charlie-brown-jr.jpg bahia-tablatura-charlie-brown-jr|Bahia|Charlie Brown Jr.|charlie-brown-jr.jpg be-myself-tablatura-charlie-brown-jr|Be myself|Charlie Brown Jr.|charlie-brown-jr.jpg 177
tablatura-legiao-urbana|Legião Urbana|legiao-urbana.jpg tablatura-cassia-eller|Cássia Eller|cassia-eller.jpg tablatura-natiruts|Natiruts|natiruts.jpg?42 tablatura-capital-inicial|Capital Inicial|capital-inicial.jpg tablatura-jorge-e-mateus|Jorge e Mateus|jorge-e-mateus.jpg tablatura-nando-reis|Nando Reis|nando-reis.jpg tablatura-skank|Skank|skank.jpg tablatura-o-rappa|O Rappa|o-rappa.jpg tablatura-henrique-e-juliano|Henrique e Juliano|henrique-e-juliano.jpg tablatura-jota-quest|Jota Quest|jota-quest.jpg tablatura-marilia-mendonca|Marilia Mendonça|marilia-mendonca.jpg?79 tablatura-engenheiros-do-hawaii|Engenheiros do Hawaii|engenheiros-do-hawaii.jpg tablatura-matheus-e-kauan|Matheus e Kauan|matheus-e-kauan.jpg?53 tablatura-djavan|Djavan|djavan.jpg tablatura-armandinho|Armandinho|armandinho.jpg 50