Charlie Brown Jr.
Intro

"lembrando q a afinação é toda em bemol"


E|---0-------0---------------------------0-------0-------------------
A|-----------------------3-------3---------------------------3-------
D|-------------------------------------------------------------------
G|-------------------0-----------------------------------0-----------
B|-------0-------0-----------3-------3-------0-------0-----------3---
e|-------------------------------------------------------------------


RIFF 1


E|---0-----------------------
A|---2(5 VEZES)--------------
D|---2----------3------------(4 VEZES)
G|--------------5(6 VEZES)---
B|--------------5------------
e|---------------------------


RIFF 2

 (P. M.)    (P. M.)
E|---0-----------------------
A|---2(8 VEZES)-3------------
D|---2----------5(8 VEZES)---(4 VEZES)
G|--------------5------------
B|---------------------------
e|---------------------------


RIFF 3


E|---0-----------------------
A|---2(8 VEZES)-3------------
D|---2----------5(8 VEZES)---(4 VEZES)
G|--------------5------------
B|---------------------------
e|---------------------------


RIFF 4


E|-----------------------------------------
A|---5-----------3-----------5-------------
D|---7(13 VEZES)-5(13 VEZES)-7(13 VEZES)---
G|---7-----------5-----------7-------------
B|-----------------------------------------
e|-----------------------------------------


RIFF 5


E|-------------------------------------------------------
A|---2h3---3---3h5---5---5h7---7---7h9---9---9h10---10---
D|-------------------------------------------------------
G|-------------------------------------------------------
B|-------------------------------------------------------
e|-------------------------------------------------------


RIFF 6


E|------------------0------------
A|---3----------2---2(6 VEZES)---
D|---5(6 VEZES)-4---2------------(8 VEZES)
G|---5----------4----------------
B|-------------------------------
e|-------------------------------


RIFF 7 (TEM UM BARULHO ACOMPANHANDO ISSO {DEPOIS DO REFRÃO RIFF 6}, EU NÃO DESCOBRI AINDA)


E|---0-----------------------
A|---2(4 VEZES)-3------------
D|---2----------5(5 VEZES)---(4 VEZES)
G|--------------5------------
B|---------------------------
e|---------------------------


RIFF 8


E|--------------------------------------------------------------------------------5-5-6-6---
A|----------------------3---------------------------------------------3---7-7-5-5-----------
D|---5----------3---2---5---5----------3---2---3---5----------3---2---5---------------------
G|---7(3 VEZES)-5---4---5---7(3 VEZES)-5---4---5---7(3 VEZES)-5---4---5---------------------
B|---7----------5---4-------7----------5---4---5---7----------5---4-------------------------
e|------------------------------------------------------------------------------------------


SOLO (MAIS OU MENOS ASSIM)


E|-------------------0-------------------------------------------------------
A|---2-2-5-2---5-3-2-2-2-2-5-2---------------------------------------7---5---
D|-----------2-------2---------4-5h7-2-2-2-5-2-5h7-5-2-9-7-5-2-5h7-5---5-----(2 VEZES)
G|---------------------------------------------------------------------------
B|---------------------------------------------------------------------------
e|---------------------------------------------------------------------------


O DECORRER DA MÚSICA É ASSIM:

INTRO
RIFF 1
RIFF 2
RIFF 3
RIFF 4
RIFF 5
RIFF 6
RIFF 7
RIFF 2
RIFF 3
RIFF 4
RIFF 5
RIFF 6
RIFF 7
RIFF 8
SOLO
RIFF 7              (0)
TERMINA COM MI MENOR(2).
                    (2)
LEMBRANDO QUE ESSA MÚSICA É TOCADA UM TOM ABAIXO.
PODE SER USADO O PEDAL ZOOM 505 II, COM O MESMO
PATCH DE HOJE EU SÓ PROCURO A MINHA PAZ.
12-1-simplificada-charlie-brown-jr|12 + 1|Charlie Brown Jr.|charlie-brown-jr.jpg 121-doze-mais-um-simplificada-charlie-brown-jr|12+1 (doze mais um)|Charlie Brown Jr.|charlie-brown-jr.jpg 333-simplificada-charlie-brown-jr|333|Charlie Brown Jr.|charlie-brown-jr.jpg a-banca-simplificada-charlie-brown-jr|A banca|Charlie Brown Jr.|charlie-brown-jr.jpg a-cera-simplificada-charlie-brown-jr|A cera|Charlie Brown Jr.|charlie-brown-jr.jpg a-estrada-simplificada-charlie-brown-jr|A estrada|Charlie Brown Jr.|charlie-brown-jr.jpg a-grande-volta-simplificada-charlie-brown-jr|A grande volta|Charlie Brown Jr.|charlie-brown-jr.jpg abagabalo-simplificada-charlie-brown-jr|Abagabalo|Charlie Brown Jr.|charlie-brown-jr.jpg abrir-seus-olhos-simplificada-charlie-brown-jr|Abrir seus olhos|Charlie Brown Jr.|charlie-brown-jr.jpg aquela-paz-simplificada-charlie-brown-jr|Aquela paz|Charlie Brown Jr.|charlie-brown-jr.jpg aquele-velho-carteado-e-alguma-manobrinhas-simplificada-charlie-brown-jr|Aquele velho carteado e alguma manobrinh|Charlie Brown Jr.|charlie-brown-jr.jpg aquele-velho-carteado-e-algumas-manobrinhas-simplificada-charlie-brown-jr|Aquele Velho Carteado e Algumas Manobrin|Charlie Brown Jr.|charlie-brown-jr.jpg baader-meinhof-blues-simplificada-charlie-brown-jr|Baader-meinhof blues|Charlie Brown Jr.|charlie-brown-jr.jpg bahia-simplificada-charlie-brown-jr|Bahia|Charlie Brown Jr.|charlie-brown-jr.jpg be-myself-simplificada-charlie-brown-jr|Be myself|Charlie Brown Jr.|charlie-brown-jr.jpg 177
simplificada-legiao-urbana|Legião Urbana|legiao-urbana.jpg simplificada-cassia-eller|Cássia Eller|cassia-eller.jpg simplificada-natiruts|Natiruts|natiruts.jpg?42 simplificada-capital-inicial|Capital Inicial|capital-inicial.jpg simplificada-jorge-e-mateus|Jorge e Mateus|jorge-e-mateus.jpg simplificada-nando-reis|Nando Reis|nando-reis.jpg simplificada-skank|Skank|skank.jpg simplificada-o-rappa|O Rappa|o-rappa.jpg simplificada-henrique-e-juliano|Henrique e Juliano|henrique-e-juliano.jpg simplificada-jota-quest|Jota Quest|jota-quest.jpg simplificada-marilia-mendonca|Marilia Mendonça|marilia-mendonca.jpg?79 simplificada-engenheiros-do-hawaii|Engenheiros do Hawaii|engenheiros-do-hawaii.jpg simplificada-matheus-e-kauan|Matheus e Kauan|matheus-e-kauan.jpg?53 simplificada-djavan|Djavan|djavan.jpg simplificada-armandinho|Armandinho|armandinho.jpg 50