Te amar foi ilusão
INTRO: G7 F  C  F  G7  F  Am  G7 

Solo Guitarra 


E|------------------------------------------------------------
A|------------------------------------------------------------
D|------------------------------------------------------------
G|--5--------------5------------------------------------------
B|-------------8-------8-6-5-6-----------------------13-------
e|-----8-7-5-7-------5----------8-10-12-12h13-12-10-----------


E|------------------------------------------------------------
A|------------------------------------------------------------
D|------------------------------------------------------------
G|------------------------------------------------------------
B|-----------------------------------10-8---------------------
e|-15h17--15?13-12-13--12--10-10-8-7--------------------------
 

Complemento Piano
E|------------------------------------------------------------
A|------------------------------------------------------------
D|------------------------------------------------------------
G|-----------------------7-9----------------------------------
B|--5-6-8-8h10-10-8----------8-8-10-6-------------------------
e|------------------------------------------------------------


    C  C7+    C                                G7          
Eu sei...... talvez eu tenha sufocado o teu sentimento não  
                              F   F7+   F            
consegui sintonizar teu pensamento..... saber o que você queria                      
             C                G7           
arrancar de mim me deixando assim
 F     F4   F
não sei.. será que eu me  
                            C        C7+   C 
enganei o tempo todo com o seu olhar....   e apesar de tudo o  
                  G/B      F/A     F      G7      C   F  C   
que vivi eu me deixei levar    que ilusão foi te amar 
   
 G7  Am  G/B    C  C7+    C              
Vai en..con...trar...  alguém que você ame e que te faça o  
          G7               F              
que fez comi...go e vai chorar cada lágrima que um dia  
                   C/G  Am  F       G7       
derramei por te querer      por te amar 
G7  Am  G/B   C   C7+    C                     
E   vai sem...tir     a dor da indiferença desse alguém que  
Am       G7           F       G7                   
só te engana vai aprender a viver e dar valor no amor de quem  
   C 
te ama..  

Solo:

E|------------------------------------------------------------
A|------------------------------------------------------------
D|------------------------------------------------------------
G|-----5-7-------7-----7-5-----7-7-5-7--4-5-7-7-4-5-4h5-------
B|---------6-5-5---5-------5-5--------------------------------
e|------------------------------------------------------------



E|------------------------------------------------------------
A|------------------------------------------------------------
D|--7-5-7h9--7-7-5-7--5-7-------------------------------------
G|------------------------5-7-------------------7-5-7---------
B|----------------------------6-6h8-6-6-5-6-6h5---------------
e|------------------------------------------------------------



E|------------------------------------------------------------
A|------------------------------------------------------------
D|-----7-----5-7---7------------------------------------------
G|-------5-7-----5---5--7-5-7---------------------------------
B|----------------------------5-6-8---------------------------
e|----------------------------------8-------------------------


INTRO: G7  C  G/B  Am  G7  Am  Dm  F/A  G/B  C  C7 
 
     F                                             C         
Não sei será que eu me enganei o tempo todo com o seu olhar 
C7+      C                               G/B      F/A    
    e apesar de tudo o que vivi eu me deixei levar    que    
  F    G7         C   F  C  Am  G7   
ilusão   foi te amar 
 
REPETE REFRÃO 
 
Solo final: F  G  G/B  C
|/se-eu-chorar-tablatura-jorge-e-mateus|Se eu chorar|Jorge e Mateus|/tmp/jorge-e-mateus.jpg?75 |/pra-nunca-dizer-adeus-tablatura-jorge-e-mateus|Pra nunca dizer adeus|Jorge e Mateus|/tmp/jorge-e-mateus.jpg?75 |/penumbra-tablatura-jorge-e-mateus|Penumbra|Jorge e Mateus|/tmp/jorge-e-mateus.jpg?75 |/porque-tablatura-jorge-e-mateus|Porque|Jorge e Mateus|/tmp/jorge-e-mateus.jpg?75 |/por-baixo-ou-por-cima-tablatura-jorge-e-mateus|Por baixo ou por cima|Jorge e Mateus|/tmp/jorge-e-mateus.jpg?75 |/vou-ate-o-fim-tablatura-jorge-e-mateus|Vou até o fim|Jorge e Mateus|/tmp/jorge-e-mateus.jpg?75 |/pensa-em-mim-tablatura-jorge-e-mateus|Pensa em mim|Jorge e Mateus|/tmp/jorge-e-mateus.jpg?75 |/te-amo-tanto-que-nem-sei-tablatura-jorge-e-mateus|Te amo tanto que nem sei|Jorge e Mateus|/tmp/jorge-e-mateus.jpg?75 |/so-eu-sei-tablatura-jorge-e-mateus|Só eu sei|Jorge e Mateus|/tmp/jorge-e-mateus.jpg?75 |/so-falta-voce-tablatura-jorge-e-mateus|Só falta você|Jorge e Mateus|/tmp/jorge-e-mateus.jpg?75 29
|/tablatura-henrique-e-juliano|Henrique e juliano||/tmp/henrique-e-juliano.jpg?44 |/tablatura-marilia-mendonca|Marilia mendonça||/tmp/marilia-mendonca.jpg?66 |/tablatura-matheus-e-kauan|Matheus e kauan||/tmp/matheus-e-kauan.jpg?29 |/tablatura-maiara-e-maraisa|Maiara e maraisa||/tmp/maiara-e-maraisa.jpg?23 |/tablatura-luan-santana|Luan santana||/tmp/luan-santana.jpg?66 |/tablatura-gusttavo-lima|Gusttavo lima||/tmp/gusttavo-lima.png?8 |/tablatura-bruno-e-marrone|Bruno e marrone||/tmp/bruno-e-marrone.jpg?65 |/tablatura-cristiano-araujo|Cristiano araújo||/tmp/cristiano-araujo.jpg?84 |/tablatura-ze-neto-e-cristiano|Zé neto e cristiano||/tmp/ze-neto-e-cristiano.jpg?57 |/tablatura-wesley-safadao|Wesley safadão||/tmp/wesley-safadao.jpg?57 5