Charlie Brown Jr.
Riff 1 - 4x:

E|-----------------------------------------------|
B|-----------------------------------------------|
G|--7-7-----(7)----------------------------------|
D|--7-7---(7)-------7-7-----(7)--4-4---5---------|
A|--5-5-------------7-7--(7)-----4-4---5---------|
E|------------------5-5----------2-2---3---------|


Solo:

E|--------------------------------------------|
B|--------------------------------------------|
G|--------------------------------------------|
D|----4-5-4-2-4-0-0---4-5-4-2-0-/7------------|
A|--------------------------------------------|
E|--------------------------------------------|


Riff 2:

      D   A
E|-------------|----------------|
B|-------------|----------------|
G|--7----------|----------------|
D|--7-----7----|----4-4---5-----|
A|--5-----7----|----4-4---5-----|
E|--------5----|----2-2---3-----|

duas palhetadas - aki palhtada
e uma normal    - normal

Riff 3:

E|-------------|
B|-------------|
G|---------(7)-|
D|-------(7)---|
A|-----(7)-----|
E|-------------|


(Riff 1)

(Riff 1 com solo)

(Riff 2)

(Riff 1)

Solo:

E|----------------------------|-------------------------|
B|----------------------------|-------------------------|
G|---4------------------------|-4-----------------------|
D|---4--2-1---/4-2-1----------|-4--2--2-1-----4-2-1-----|
A|---2------4--------4-2--4-2-|-2--2------4-2-------4---|
E|----------------------------|----0--------------------|


Riff 1:
                                              G|------------/7-|
(solo 2x - com uma pequena altera ção no fim  D|----/7-8-7-----|

(Riff 1 - 2x)

(Solo)

D          A      F#m    G                 (Riff 2)
 Tive pensando em me mudar

 sem te deixar pra trás yeah
D      A            F#m    G
 resolvi pensar em nós      yeah
D      A    F#m    G
 vou te levar daqui, vou
(Riff 1 )
D      A    F#m    G
 te levar    yeah
        D      A    F#m    G
 te levar daqui      yeah
 D      A    F#m    G
 vou te levar      yeah
D      A    F#m    G
 te levar daqui    yeah

(solo)

D      A    F#m    G
 Se aquele tempo ficou pra trás          (Riff 2)
D      A    F#m    G
 Se eu nunca fui feliz ali
D      A    F#m    G
 resolvi pensar em nós yeah

 vou te levar daqui, vou
D      A    F#m    G                     (Riff 1)
 te levar    yeah
D      A    F#m    G
 te levar daqui      yeah
 D      A    F#m    G
 vou te levar      yeah
D      A    F#m    G
 te levar daqui    yeah

 Eu tenho história de luta e glória,                       (Riff 3)
 mas deixa eu te contar o que eu passei por lá
 mas ainda fico impressionado com as coisas da cidade
 aqueles manos que foram chegaram anos e foram
 pra onde foram ninguém sabe, ninguém faz
 anos e anos da correria vai leva e traz
 anos e anos da correria vai leva e traz yeah!!!!
 D  A      F#m     G
 Vou te levar yeah                             (Riff 1)
 te levar daqui
 vou te levar yeah
 te levar daqui

(solo)

(refrão Riff 1)

(solo 2x com pequena alteração no fim)
D|,425362,3456|,253442525362,23456|5,334353,23456|10,233342|7,142364|7,142354,12345|14,243341515261,23456|17,334353,23456|12,31435463,3456|19,142364|19,142354,12345 A|,324252,23456|5,233342|2,142364|2,142354,12345|9,243341515261,23456|12,334353,23456|7,31435463,3456|17,233342|14,142364|14,142354,12345|19,31435463,3456 F#m|2,2333|2,233364|14,2333|9,334352,23456|4,31435462,3456|14,233364|6,24324152,2345|11,142254,12345|11,14223144,1234|16,31435462,3456|18,24324152,2345 G|,132263|,13225363|3,233342|7,243341515261,23456|5,31435463,3456|10,334353,23456|15,233342|12,142364|12,142354,12345|19,243352,23456|17,31435463,3456
12-1-simplificada-charlie-brown-jr|12 + 1|Charlie Brown Jr.|charlie-brown-jr.jpg 121-doze-mais-um-simplificada-charlie-brown-jr|12+1 (doze mais um)|Charlie Brown Jr.|charlie-brown-jr.jpg 333-simplificada-charlie-brown-jr|333|Charlie Brown Jr.|charlie-brown-jr.jpg a-banca-simplificada-charlie-brown-jr|A banca|Charlie Brown Jr.|charlie-brown-jr.jpg a-cera-simplificada-charlie-brown-jr|A cera|Charlie Brown Jr.|charlie-brown-jr.jpg a-estrada-simplificada-charlie-brown-jr|A estrada|Charlie Brown Jr.|charlie-brown-jr.jpg a-grande-volta-simplificada-charlie-brown-jr|A grande volta|Charlie Brown Jr.|charlie-brown-jr.jpg abagabalo-simplificada-charlie-brown-jr|Abagabalo|Charlie Brown Jr.|charlie-brown-jr.jpg abrir-seus-olhos-simplificada-charlie-brown-jr|Abrir seus olhos|Charlie Brown Jr.|charlie-brown-jr.jpg aquela-paz-simplificada-charlie-brown-jr|Aquela paz|Charlie Brown Jr.|charlie-brown-jr.jpg aquele-velho-carteado-e-alguma-manobrinhas-simplificada-charlie-brown-jr|Aquele velho carteado e alguma manobrinh|Charlie Brown Jr.|charlie-brown-jr.jpg aquele-velho-carteado-e-algumas-manobrinhas-simplificada-charlie-brown-jr|Aquele Velho Carteado e Algumas Manobrin|Charlie Brown Jr.|charlie-brown-jr.jpg baader-meinhof-blues-simplificada-charlie-brown-jr|Baader-meinhof blues|Charlie Brown Jr.|charlie-brown-jr.jpg bahia-simplificada-charlie-brown-jr|Bahia|Charlie Brown Jr.|charlie-brown-jr.jpg be-myself-simplificada-charlie-brown-jr|Be myself|Charlie Brown Jr.|charlie-brown-jr.jpg 177
simplificada-legiao-urbana|Legião Urbana|legiao-urbana.jpg simplificada-cassia-eller|Cássia Eller|cassia-eller.jpg simplificada-natiruts|Natiruts|natiruts.jpg?42 simplificada-capital-inicial|Capital Inicial|capital-inicial.jpg simplificada-jorge-e-mateus|Jorge e Mateus|jorge-e-mateus.jpg simplificada-nando-reis|Nando Reis|nando-reis.jpg simplificada-skank|Skank|skank.jpg simplificada-o-rappa|O Rappa|o-rappa.jpg simplificada-henrique-e-juliano|Henrique e Juliano|henrique-e-juliano.jpg simplificada-jota-quest|Jota Quest|jota-quest.jpg simplificada-marilia-mendonca|Marilia Mendonça|marilia-mendonca.jpg?79 simplificada-engenheiros-do-hawaii|Engenheiros do Hawaii|engenheiros-do-hawaii.jpg simplificada-matheus-e-kauan|Matheus e Kauan|matheus-e-kauan.jpg?53 simplificada-djavan|Djavan|djavan.jpg simplificada-armandinho|Armandinho|armandinho.jpg 50