Charlie Brown Jr.
Essa musica é muito facil, tem partes dificeis de serem tiradas
mas é mais ou menos isso!


Riff 1 - Guitarra um toca isso com uma distorção bem feia, depois entra
a outra gutiarra fazendo a mesma coisa!


eb:----------------------------------------------|
Bb:--------14-----------14--------------14-------|
Gb:--12-13----13--12-13----13-12--12-13----13-12-|
Db:----------------------------------------------|
Ab:----------------------------------------------|
Eb:----------------------------------------------|



Riff 2 - E5 - G5 - A5


Riff 3


eb:--------------------|
Bb:--------------------|
Gb:--------------------|
Db:-x-x-x-x--5-5-5--7--|
Ab:-x-x-x-x--5-5-5--7--|
Eb:-x-x-x-x--3-3-3--5--|


Riff 4


eb:--------------------------------------------12--|
Bb:--------------------------------------------12--|
Gb:--------------------------------------------12--|
Db:----------9-------------9------------9----------|
Ab:--2-------7-----2-------7-----2------7----------|
Eb:--0-0-0-0---0-0-0-0-0-0---0-0-0-0-0-0--0-0------|


Riff 5 - Abafado!!


eb:----------------------------------|
Bb:----------------------------------|
Gb:----------------------------------|
Db:----------------------------------|
Ab:-----------12-----------12--------|
Eb:--12-12-14----14-12--14----14-12--|


Riff 6 - Uma guitarra faz no intervalo desse riff a nota E5, ouça a musica e fica facil!


eb:------------|
Bb:------------|
Gb:--------12--|
Db:--12-13-----|
Ab:------------|
Eb:------------|


Solo - Improvise, não tem melhor coisa do que improvisar!!


Riff 7

e:-------|
B:-------|
G:-------|
D:-5-----|
A:-5--2--|
E:-3--0--|


Riff 1

Riff 2
Vaidade sua o mundo de lua Show biz agora é uma gang de rua

Riff 3
Quando o cara é mané ele faz o que quer
Se liga meu irmão essa mulher
O que ela agüenta sorrindo você não agüenta nem gritando

Riff 4
O cheiro da raposa deixou tremula a esposa do urubu malandro
O jogo vira eu sei o que estou falando
A força, força, força, a inteligência é minha força

Riff 5
E a vontade de vencer está mais forte em mim agora

Riff 6

Riff 2
É tudo filho da puta
É tudo filho da puta
É tudo filho da puta
É tudo filho da puta

Riff 3
No meio disso tudo eu não te iludo e não me iludo
A pouco tempo atras eu era um pobre vagabundo
Andava pela rua sem nenhum trocado
Ia a pé pra toda lado
Maltrapilho e maltratado

Riff 4
Quem vai abrir pra mim as portas da Babilônia
Mas quem vai abrir pra mim as portas da Babilônia

Riff 5
Um governo falido não ajuda ninguém
Hoje eles me fodem amanhã vou foder eles também
Vão te foder também

Aqui é a virada do Pelado!
Vaidade sua o mundo de lua Show biz agora é uma gang de rua

Riff 6

Solo - Base Riff 2

Riff 1

É tudo filha da puta

Riff 7

Filha da puta....


Essa Música não é dicifil é sim chata de tirar, mas pra toca é uma delicia!
E5|,2232,123|,324455,345|7,213343,234|9,415464,456|12,112333,123|14,314354,345|19,213343,234 G5|,5363,456|3,112333,123|5,314354,345|10,213343,234|12,415464,456|15,112333,123|17,314354,345 A5|,425565,456|12,213343,234|14,415464,456|17,112333,123|19,314354,345
12-1-tablatura-charlie-brown-jr|12 + 1|Charlie Brown Jr.|charlie-brown-jr.jpg 121-doze-mais-um-tablatura-charlie-brown-jr|12+1 (doze mais um)|Charlie Brown Jr.|charlie-brown-jr.jpg 333-tablatura-charlie-brown-jr|333|Charlie Brown Jr.|charlie-brown-jr.jpg a-banca-tablatura-charlie-brown-jr|A banca|Charlie Brown Jr.|charlie-brown-jr.jpg a-cera-tablatura-charlie-brown-jr|A cera|Charlie Brown Jr.|charlie-brown-jr.jpg a-estrada-tablatura-charlie-brown-jr|A estrada|Charlie Brown Jr.|charlie-brown-jr.jpg a-grande-volta-tablatura-charlie-brown-jr|A grande volta|Charlie Brown Jr.|charlie-brown-jr.jpg abagabalo-tablatura-charlie-brown-jr|Abagabalo|Charlie Brown Jr.|charlie-brown-jr.jpg abrir-seus-olhos-tablatura-charlie-brown-jr|Abrir seus olhos|Charlie Brown Jr.|charlie-brown-jr.jpg aquela-paz-tablatura-charlie-brown-jr|Aquela paz|Charlie Brown Jr.|charlie-brown-jr.jpg aquele-velho-carteado-e-alguma-manobrinhas-tablatura-charlie-brown-jr|Aquele velho carteado e alguma manobrinh|Charlie Brown Jr.|charlie-brown-jr.jpg aquele-velho-carteado-e-algumas-manobrinhas-tablatura-charlie-brown-jr|Aquele Velho Carteado e Algumas Manobrin|Charlie Brown Jr.|charlie-brown-jr.jpg baader-meinhof-blues-tablatura-charlie-brown-jr|Baader-meinhof blues|Charlie Brown Jr.|charlie-brown-jr.jpg bahia-tablatura-charlie-brown-jr|Bahia|Charlie Brown Jr.|charlie-brown-jr.jpg be-myself-tablatura-charlie-brown-jr|Be myself|Charlie Brown Jr.|charlie-brown-jr.jpg 177
tablatura-legiao-urbana|Legião Urbana|legiao-urbana.jpg tablatura-cassia-eller|Cássia Eller|cassia-eller.jpg tablatura-natiruts|Natiruts|natiruts.jpg?42 tablatura-capital-inicial|Capital Inicial|capital-inicial.jpg tablatura-jorge-e-mateus|Jorge e Mateus|jorge-e-mateus.jpg tablatura-nando-reis|Nando Reis|nando-reis.jpg tablatura-skank|Skank|skank.jpg tablatura-o-rappa|O Rappa|o-rappa.jpg tablatura-henrique-e-juliano|Henrique e Juliano|henrique-e-juliano.jpg tablatura-jota-quest|Jota Quest|jota-quest.jpg tablatura-marilia-mendonca|Marilia Mendonça|marilia-mendonca.jpg?79 tablatura-engenheiros-do-hawaii|Engenheiros do Hawaii|engenheiros-do-hawaii.jpg tablatura-matheus-e-kauan|Matheus e Kauan|matheus-e-kauan.jpg?53 tablatura-djavan|Djavan|djavan.jpg tablatura-armandinho|Armandinho|armandinho.jpg 50