Atenção: afine a corda mi mais grave meio tom abaixo,
    que é muito melhor que afinar a guitarra inteira meio tom abaixo.

O início é pesado assim memo!


            4x                              2x
E|--------------------------|-------------------------------------------
B|--------------------------|-------------------------------------------
G|--5-5-5-5-----------------|-------------------------------------------
D|--5-5-5-5--1-1-1-1--------|------------------1/3-3-3-1-----------1----
A|--3-3-3-3--1-1-1-1--------|--3-3-3-3-1-1-1-1-----------3-3-3-1-3------
E|-----------0-0-0-0--------|-------------------------------------------






E|----------------------------------------------------------------------
B|----------------------------------------------------------------------
G|----------------------------------------------------------------------
D|------------8-------------------------------------8-------------------
A|-1-1-1--6------------------------------1-1-1--6-----------------------
E|-0-0-0----0----0-3-0-5/65-------------0-0-0----0----0-3-0-5/65------



Eu digo foda-se se eles se acharem educados de mais pra mim!
Eu digo foda-se se eles se acharem elitizados de mais pra mim!
Eu digo foda-se se eles se acharem inteligentes de mais pra mim!
Eu digo foda-se se eles se acharem bons de mais pra mim!



E|----------------------------------------------------------------------
B|----------------------------------------------------------------------
G|----------------------------------------------------------------------
D|--4-4-4-4-4-4-4-4--6-6-6-6-6-6-6-6------------------------------------
A|--4-4-4-4-4-4-4-4--6-6-6-6-6-6-6-6------------------------------------
E|--3-3-3-3-3-3-3-3--5-5-5-5-5-5-5-5------------------------------------



Refrão

Eles são todos iguais!!
Eles são todos iguais!!


E|----------------------------------------------------------------------
B|----------------------------------------------------------------------
G|----------------------------------------------------------------------
D|--6-6-6-6--9-9-9-9--6-6-6-6-6--9-9-9-9--------------------------------
A|--6-6-6-6--9-9-9-9--6-6-6-6-6--9-9-9-9--------------------------------
E|--5-5-5-5--8-8-8-8--5-8-5-8-5--8-8-8-8--------------------------------


Meu estilo de vida 


E|----------------------------------------------------------------------
B|----------------------------------------------------------------------
G|----------------------------------------------------------------------
D|------------8-------------------------------------8-------------------
A|-1-1-1--6------------------------------1-1-1--6-----------------------
E|-0-0-0----0----0-3-0-5/65-------------0-0-0----0----0-3-0-5/65------

Eu digo foda-se se eles se acharem educados de mais pra mim!
Eu digo foda-se se eles se acharem elitizados de mais pra mim!
Eu digo foda-se se eles se acharem inteligentes de mais pra mim!
Eu digo foda-se se eles se acharem bons de mais pra mim!



E|----------------------------------------------------------------------
B|----------------------------------------------------------------------
G|----------------------------------------------------------------------
D|--4-4-4-4-4-4-4-4--6-6-6-6-6-6-6-6------------------------------------
A|--4-4-4-4-4-4-4-4--6-6-6-6-6-6-6-6------------------------------------
E|--3-3-3-3-3-3-3-3--5-5-5-5-5-5-5-5------------------------------------



Refrão

Eles são todos iguais!!
Eles são todos iguais!!


E|----------------------------------------------------------------------
B|----------------------------------------------------------------------
G|----------------------------------------------------------------------
D|--6-6-6-6--9-9-9-9--6-6-6-6-6--9-9-9-9--------------------------------
A|--6-6-6-6--9-9-9-9--6-6-6-6-6--9-9-9-9--------------------------------
E|--5-5-5-5--8-8-8-8--5-8-5-8-5--8-8-8-8--------------------------------





Meu estilo de vida liberta a minha mente
Completamente louco, mas um louco consciente

Eu vivo a vida, é assim que se faz!


         4X                                2X
E|------------------------|---------------------------------------------
B|------------------------|---------------------------------------------
G|-----------5-5-5-5------|---------------------------------------------
D|--1-1-1-1--5-5-5-5------|------------------1/3-3-3-1-----------1------
A|--1-1-1-1--3-3-3-3------|--3-3-3-3-1-1-1-1-----------3-3-3-1-3--------
E|--0-0-0-0---------------|---------------------------------------------
12-1-cifra-charlie-brown-jr|12 + 1|Charlie Brown Jr.|charlie-brown-jr.jpg?85 121-doze-mais-um-cifra-charlie-brown-jr|12+1 (doze mais um)|Charlie Brown Jr.|charlie-brown-jr.jpg?85 333-cifra-charlie-brown-jr|333|Charlie Brown Jr.|charlie-brown-jr.jpg?85 a-banca-cifra-charlie-brown-jr|A banca|Charlie Brown Jr.|charlie-brown-jr.jpg?85 a-cera-cifra-charlie-brown-jr|A cera|Charlie Brown Jr.|charlie-brown-jr.jpg?85 a-estrada-cifra-charlie-brown-jr|A estrada|Charlie Brown Jr.|charlie-brown-jr.jpg?85 a-grande-volta-cifra-charlie-brown-jr|A grande volta|Charlie Brown Jr.|charlie-brown-jr.jpg?85 abagabalo-cifra-charlie-brown-jr|Abagabalo|Charlie Brown Jr.|charlie-brown-jr.jpg?85 abrir-seus-olhos-cifra-charlie-brown-jr|Abrir seus olhos|Charlie Brown Jr.|charlie-brown-jr.jpg?85 aquela-paz-cifra-charlie-brown-jr|Aquela paz|Charlie Brown Jr.|charlie-brown-jr.jpg?85 aquele-velho-carteado-e-alguma-manobrinhas-cifra-charlie-brown-jr|Aquele velho carteado e alguma manobrinh|Charlie Brown Jr.|charlie-brown-jr.jpg?85 aquele-velho-carteado-e-algumas-manobrinhas-cifra-charlie-brown-jr|Aquele Velho Carteado e Algumas Manobrin|Charlie Brown Jr.|charlie-brown-jr.jpg?85 baader-meinhof-blues-cifra-charlie-brown-jr|Baader-meinhof blues|Charlie Brown Jr.|charlie-brown-jr.jpg?85 bahia-cifra-charlie-brown-jr|Bahia|Charlie Brown Jr.|charlie-brown-jr.jpg?85 be-myself-cifra-charlie-brown-jr|Be myself|Charlie Brown Jr.|charlie-brown-jr.jpg?85 178
cifras-legiao-urbana|Legião Urbana|legiao-urbana.jpg cifras-cassia-eller|Cássia Eller|cassia-eller.jpg cifras-natiruts|Natiruts|natiruts.jpg?42 cifras-capital-inicial|Capital Inicial|capital-inicial.jpg cifras-jorge-e-mateus|Jorge e Mateus|jorge-e-mateus.jpg?7 cifras-nando-reis|Nando Reis|nando-reis.jpg cifras-skank|Skank|skank.jpg cifras-o-rappa|O Rappa|o-rappa.jpg cifras-henrique-e-juliano|Henrique e Juliano|henrique-e-juliano.jpg cifras-jota-quest|Jota Quest|jota-quest.jpg?13 cifras-marilia-mendonca|Marilia Mendonça|marilia-mendonca.jpg?38 cifras-engenheiros-do-hawaii|Engenheiros do Hawaii|engenheiros-do-hawaii.jpg cifras-matheus-e-kauan|Matheus e Kauan|matheus-e-kauan.jpg?53 cifras-djavan|Djavan|djavan.jpg cifras-armandinho|Armandinho|armandinho.jpg 50