Charlie Brown Jr.
Intro e Verso:                      
G|-------------------| 
D|-------------------| 
A|--6-6-----4-4------| 
E|------6-6-----4-4--| 
 
Eu nunca tive muito a ver com ela... 
G|--8-8-----6-6------| 
D|------8-8-----6-6--| 
A|-------------------| 
E|-------------------| 
 
   Refrão 
G|-------------------| 
D|-------------------| 
A|--6-6-----4-4------| 
E|------6-6-----4-4--| 
 
 
   Solo Guitarra 
G|----------------------------------------| 
D|----------------------------------------| 
A|--6-6----------------6-6----------------| 
E|------6-6--4-4-4-4-4-----6-6--4-4-4-4-4-| 
 
 
   Repete Intro 
G|-------------------| 
D|-------------------| 
A|--6-6-----4-4------| 
E|------6-6-----4-4--| 
 
Um dia eu volto pra fazer só a sua vontade, mas... 
G|--8-8-----6-6------| 
D|------8-8-----6-6--| 
A|-------------------| 
E|-------------------| 
 
   Refrão 
G|-------------------| 
D|-------------------| 
A|--6-6-----4-4------| 
E|------6-6-----4-4--| 
 
Beat Box (Se quiser acompanhar é só isso) 
 
G|---------------------------| 
D|---------------------------| 
A|--6-6-6-6-6-6-6-6-6-6------| 
E|---------------------------| 
 
O tempo às vezes é alheio à nossa vontade, mas 
G|---------------------------| 
D|---------------------------| 
A|-----------------4-4-4-4~--| 
E|-6-6-6-6-4-4-4-4-----------| 
 
Só o que é bom dura tempo o bastante pra se tornar inesquecível 
 
G|---------------------------| 
D|---------------------------| 
A|-4-4-4-4-------------------| 
E|---------4-4-4-4-6-6-6-6~--| 
 
E finaliza - Qual será o defeito da fala... 
G|-------------------------------------| 
D|-------------------------------------| 4 
A|-66-----------------66---------------| 
E|----66--4-4-4-4-4------66--4-4-4-4-4-|
12-1-cifra-charlie-brown-jr|12 + 1|Charlie Brown Jr.|charlie-brown-jr.jpg 121-doze-mais-um-cifra-charlie-brown-jr|12+1 (doze mais um)|Charlie Brown Jr.|charlie-brown-jr.jpg 333-cifra-charlie-brown-jr|333|Charlie Brown Jr.|charlie-brown-jr.jpg a-banca-cifra-charlie-brown-jr|A banca|Charlie Brown Jr.|charlie-brown-jr.jpg a-cera-cifra-charlie-brown-jr|A cera|Charlie Brown Jr.|charlie-brown-jr.jpg a-estrada-cifra-charlie-brown-jr|A estrada|Charlie Brown Jr.|charlie-brown-jr.jpg a-grande-volta-cifra-charlie-brown-jr|A grande volta|Charlie Brown Jr.|charlie-brown-jr.jpg abagabalo-cifra-charlie-brown-jr|Abagabalo|Charlie Brown Jr.|charlie-brown-jr.jpg abrir-seus-olhos-cifra-charlie-brown-jr|Abrir seus olhos|Charlie Brown Jr.|charlie-brown-jr.jpg aquela-paz-cifra-charlie-brown-jr|Aquela paz|Charlie Brown Jr.|charlie-brown-jr.jpg aquele-velho-carteado-e-alguma-manobrinhas-cifra-charlie-brown-jr|Aquele velho carteado e alguma manobrinh|Charlie Brown Jr.|charlie-brown-jr.jpg aquele-velho-carteado-e-algumas-manobrinhas-cifra-charlie-brown-jr|Aquele Velho Carteado e Algumas Manobrin|Charlie Brown Jr.|charlie-brown-jr.jpg baader-meinhof-blues-cifra-charlie-brown-jr|Baader-meinhof blues|Charlie Brown Jr.|charlie-brown-jr.jpg bahia-cifra-charlie-brown-jr|Bahia|Charlie Brown Jr.|charlie-brown-jr.jpg be-myself-cifra-charlie-brown-jr|Be myself|Charlie Brown Jr.|charlie-brown-jr.jpg 177
cifras-legiao-urbana|Legião Urbana|legiao-urbana.jpg cifras-cassia-eller|Cássia Eller|cassia-eller.jpg cifras-natiruts|Natiruts|natiruts.jpg?42 cifras-capital-inicial|Capital Inicial|capital-inicial.jpg cifras-jorge-e-mateus|Jorge e Mateus|jorge-e-mateus.jpg cifras-nando-reis|Nando Reis|nando-reis.jpg cifras-skank|Skank|skank.jpg cifras-o-rappa|O Rappa|o-rappa.jpg cifras-henrique-e-juliano|Henrique e Juliano|henrique-e-juliano.jpg cifras-jota-quest|Jota Quest|jota-quest.jpg cifras-marilia-mendonca|Marilia Mendonça|marilia-mendonca.jpg?79 cifras-engenheiros-do-hawaii|Engenheiros do Hawaii|engenheiros-do-hawaii.jpg cifras-matheus-e-kauan|Matheus e Kauan|matheus-e-kauan.jpg?53 cifras-djavan|Djavan|djavan.jpg cifras-armandinho|Armandinho|armandinho.jpg 50