Charlie Brown Jr.
Legenda:
/ = slide
x = palm mute
PM = palm mute

"ahhh...isso não tem nada a ver com amor
esse sacana devia tá era satisfeito
mas ele derruba tudo que ele mesmo constrói
ele fica perdido no dia a dia
o dia a dia tá perdido no tempo
e o tempo já se perdeu no incompreensível"


Riff 1
|---------------------------------------------------------------------|
|---------------------------------------------------------------------|
|---------------------------------------------------------------------|
|---------------------------------------------------------------------|
|-0-2-3-0--5-3-2----0-------------------------------------------------|
|-0-2-3-0--5-3-2----0--7-8-0-7-8-0------------------------------------|


           | PM |      |    PM    |
|---------------------------------------------------------------------|
|---------------------------------------------------------------------|
|------9-9-------6-6--------------------------------------------------|
|------9-9-------6-6--------------------------------------------------|
|-0-0-------0-0-------------------------------------------------------|
|-0-0-------0-0-------------------------------------------------------|

  |PM|      |PM|

Riff 1
eu não posso dar isso a nenhum filha da puta
que convida a história pra comemorar
exuberantemente imundo o seu mundo
chique pra caralho
eu nunca vou me igualar

Riff 2

|-------------------------------------------------------------------|
|------8-9-------------------8-9-8-9--------8-9---------------------|
|------7-8-------------------7-8-7-8--------7-8----------------9-9--|
|--------------------------------------------------------------9-9--|
|-0-0-------0--7-9-0----0-0-0----------0-0-------0----------0-------|
|-0-0-------0--7-9-0----0-0-0----------0-0-------0--7-9-0---0-------|
 |PM|     |PM|          |PM |          |PM|    |PM|       |PM|



|---------------------------------------------------------------------|
|---------------------------------------------------------------------|
|------9-9-------6-6--------------------------------------------------|
|------9-9-------6-6--------------------------------------------------|
|-0-0-------0-0-------------------------------------------------------|
|-0-0-------0-0-------------------------------------------------------|
  |PM|     |PM|


Riff 2
vida de magnata
mordomia e mesa farta
futilidade que alimenta a desgraça
enquanto o povo se mata (2x)

Riff 3


|---------------------------------------------------------------------|
|---------------------------------------------------------------------|
|------9-9-----3/4-x-4/5-x-5/7----------------------------------------|
|------9-9-----3/4-x-4/5-x-5/7----------------------------------------|
|-0-0-----------------------------------------------------------------|
|-0-0-----------------------------------------------------------------|
  |PM|



|---------------------------------------------------------------------|
|---------------------------------------------------------------------|
|---------------------------------------------------------------------|
|---------------------------------------------------------------------|
|-7--x-7--x-x--9--x--9------------------------------------------------|
|-7--x-7--x-x--9--x--9------------------------------------------------|


Riff 3

(parte do chorão)

realidade nua e crua diferente da sua
aqui só sobrevive quem é cria da rua

Riff 1
eu não consigo conter o ódio q fode em mim
o mundo criou mas não forçaram em mim
a sociedade prega o bem mas alimenta o mal
eu sei disso muito bem
eu anarquizo geral


Riff 1
lixo...bem perto, eu como bicho...bem perto
eu como lixo e o lixo são vocês
lixo que expressa o que eu sinto
que agulça o meu ódio que eu sinto por vocês

Riff 2
vida de magnata
mordomia e mesa farta
futilidade que alimenta a desgraça
enquanto o povo se mata (2x)
 
Riff 3
(parte do chorão)

Riff 1
não faça nada de errado deixe tudo pra mim
eu sobrevôo sobre a morte como abutre sim
somos migalhas, eu e você
somos ... que se fodam todos eles

vida de magnata (4x)
12-1-simplificada-charlie-brown-jr|12 + 1|Charlie Brown Jr.|charlie-brown-jr.jpg 121-doze-mais-um-simplificada-charlie-brown-jr|12+1 (doze mais um)|Charlie Brown Jr.|charlie-brown-jr.jpg 333-simplificada-charlie-brown-jr|333|Charlie Brown Jr.|charlie-brown-jr.jpg a-banca-simplificada-charlie-brown-jr|A banca|Charlie Brown Jr.|charlie-brown-jr.jpg a-cera-simplificada-charlie-brown-jr|A cera|Charlie Brown Jr.|charlie-brown-jr.jpg a-estrada-simplificada-charlie-brown-jr|A estrada|Charlie Brown Jr.|charlie-brown-jr.jpg a-grande-volta-simplificada-charlie-brown-jr|A grande volta|Charlie Brown Jr.|charlie-brown-jr.jpg abagabalo-simplificada-charlie-brown-jr|Abagabalo|Charlie Brown Jr.|charlie-brown-jr.jpg abrir-seus-olhos-simplificada-charlie-brown-jr|Abrir seus olhos|Charlie Brown Jr.|charlie-brown-jr.jpg aquela-paz-simplificada-charlie-brown-jr|Aquela paz|Charlie Brown Jr.|charlie-brown-jr.jpg aquele-velho-carteado-e-alguma-manobrinhas-simplificada-charlie-brown-jr|Aquele velho carteado e alguma manobrinh|Charlie Brown Jr.|charlie-brown-jr.jpg aquele-velho-carteado-e-algumas-manobrinhas-simplificada-charlie-brown-jr|Aquele Velho Carteado e Algumas Manobrin|Charlie Brown Jr.|charlie-brown-jr.jpg baader-meinhof-blues-simplificada-charlie-brown-jr|Baader-meinhof blues|Charlie Brown Jr.|charlie-brown-jr.jpg bahia-simplificada-charlie-brown-jr|Bahia|Charlie Brown Jr.|charlie-brown-jr.jpg be-myself-simplificada-charlie-brown-jr|Be myself|Charlie Brown Jr.|charlie-brown-jr.jpg 177
simplificada-legiao-urbana|Legião Urbana|legiao-urbana.jpg simplificada-cassia-eller|Cássia Eller|cassia-eller.jpg simplificada-natiruts|Natiruts|natiruts.jpg?42 simplificada-capital-inicial|Capital Inicial|capital-inicial.jpg simplificada-jorge-e-mateus|Jorge e Mateus|jorge-e-mateus.jpg simplificada-nando-reis|Nando Reis|nando-reis.jpg simplificada-skank|Skank|skank.jpg simplificada-o-rappa|O Rappa|o-rappa.jpg simplificada-henrique-e-juliano|Henrique e Juliano|henrique-e-juliano.jpg simplificada-jota-quest|Jota Quest|jota-quest.jpg simplificada-marilia-mendonca|Marilia Mendonça|marilia-mendonca.jpg?79 simplificada-engenheiros-do-hawaii|Engenheiros do Hawaii|engenheiros-do-hawaii.jpg simplificada-matheus-e-kauan|Matheus e Kauan|matheus-e-kauan.jpg?53 simplificada-djavan|Djavan|djavan.jpg simplificada-armandinho|Armandinho|armandinho.jpg 50