Charlie Brown Jr.
Vinheta Beat Box II:
Bm t K t Bm Bm K t Bm (Essa e a base, que fica durante os scratches)

Scratches:
Chewe-chi pes t-K t-K t-k bes (3x)
chewi-chi B t B B B chewi-chi B t Brown!

Intro: 

Baixo

G|-------13----11h13-18--16-----------------------------16--14-13h14p13-|
D|----11-------------16------18-16-14-------16----14h16-14--------------|
A|-12-------12------------------------16-16----16-----------------------|
E|----------------------------------------------------------------------|


Baixo (desse jeito da pra tocar no violao)

e|---------------------------------------------------------------|
B|---------------------------------------------------------------|
G|---------------6----4----------------------4----2---1-2-1------|
D|------6---4h6--4--4---4-6-4-------4---2h4--2--2---2------------|
A|---4----4-------------------7-6-4---4--------------------------|
E|-5-------------------------------------------------------------|


Solo da intro

e|------------------------------------------------------------------------------------|
B|--------5------------------------------------------------------------4-5-4----------|
G|--6--4---8--6-4---------------6--4-------4------6-----------4----4-6-------6-4--4h6-|
D|----------------6-4-6----4--6------6-4-6-----------4--6-6-4---6----------------6----|
A|-----------------------4---------------------7--------------------------------------|
E|------------------------------------------------------------------------------------|



|-------9~------------|
|-------9~----9h10-9--|
|-/6----9~------------|
|---------------------|
|---------------------|
|---------------------|


Verso: O baixo fica como na introdução
       O violão fica fazendo um solinho em C#m

Um belo sonho veio então despertar minha vontade
tudo vale a pena para te reencontrar
me livrei de tudo aquilo e consegui mudar
tudo que foi feito em troca de uma
amizade a mais / mas felicidade é poder estar com
quem voce gosta em algum lugar, é foda
ser louco, advogado do mundo mas, como tudo deve ser?
é foda ser taxado de doido vagabundo mas, como tudo deve ser?

Refrão: 


   Baixo             
G|------------------|
D|-4--4-4--6-5--7/9-|
A|------------------|
E|------------------|



   Solinho do Refrão
e|-------------------------------------|
B|-12-----12-----12-----9-----9---10---|
G|----9-9----9-9----9-9---9-9---9----9-|
D|-------------------------------------|
A|-------------------------------------|
E|-------------------------------------|


Foi quando te encontrei
ouvindo um som e olhando o mar
Foi quando te encontrei
ouvindo o som do mar rolar

Verso: 

Eu não nasci ontem, bem como, quando e por onde mas
como tudo deve ser, com as balizas do nosso sistema 
Sigo imprimindo meu sonho na história como tudo deve ser 
Um belo sonho veio então despertar minha vontade 
Tudo vale a pena para te reencontrar 
Me livrei de tudo aquilo e consegui mudar 
Tudo que foi feito em troca de uma amizade mas

(Refrão)

Verso:

Eu não preciso de promessas e acho que você também
Eu não tento ser perfeito e acho que você também
Dias e noites pensando no que fiz
 eu sou um vencedor eu lutei pelo que quis
Mas quando não se pode mais mudar, tanta coisa errada 
Vamos viver nossos sonhos, temos tão pouco tempo

(Refrão)

Solo:


e|---------------------------------------------------------------------------
B|-10/12-----10/9-------10/12---10/9-------10/12---10/9----------------------
G|----------------9~~-9--------------9~~-9---------------9~~-----------------
D|---------------------------------------------------------------------------
A|---------------------------------------------------------------------------
E|---------------------------------------------------------------------------



e|---------------------------------------------------------------------------
B|----------------------12----------------------------12---------------------
G|---------9----9h11~~--11b--9----------9-----9h11~~--11b--9-----------------
D|-11-9h11---11----------------11--9h11----11----------------11--------------
A|---------------------------------------------------------------------------
E|---------------------------------------------------------------------------



e|--------------------------------------------------------------------------
B|--------------------------------------------------------------------------
G|----------------------------------------------------8-9-11----------------
D|-9/11-----------9/11----------9/11------------9/11------------------------
A|------9-7h9----------9-7/9/7--------9-7h9---------------------------------
E|------------9-----------------------------9-------------------------------



e|-------------------------------------------------------------------------
B|--10/12~~----10/9-------10/12---10/9-------10/12---10/9------------------
G|------------------9~~-9--------------9~~-9--------------9~~--------------
D|-------------------------------------------------------------------------
A|-------------------------------------------------------------------------
E|-------------------------------------------------------------------------



e|-----------------------------------------------------------12--------------
B|----------------------12-------------------------------------12------------
G|---------9----9h11~~--11b--9----------9-----9h11~~---11b13------11r13------
D|-11-9h11---11----------------11--9h11----11--------------------------------
A|---------------------------------------------------------------------------
E|---------------------------------------------------------------------------



e|-12-11----12-11----14-12-----14-12-----------------------------------------
B|-------9--------9--------12--------12--------------------------------------

no ultimo refrão ele faz uma paradinha assim


e|--16-------16-------16-------14-------14----17----|
B|-----12-12----12-12----12-12----12-12----12----12-|
G|--------------------------------------------------|
D|--------------------------------------------------|
A|--------------------------------------------------|
E|--------------------------------------------------|


Foi quando te encontrei
ouvindo o som e olhando o mar
Foi quando te encontrei
ouvindo o som do mar rolar
Bm|2,334352,23456|7,2333|7,233364|4,142254,12345|4,14223144,1234|19,2333|14,334352,23456|9,31435462,3456|19,233364|11,24324152,2345|16,142254,12345|16,14223144,1234 B|2,334353,23456|7,233342|4,142364|4,142354,12345|11,243341515261,23456|14,334353,23456|9,31435463,3456|19,233342|16,142364|16,142354,12345 C#m|4,334352,23456|9,2333|,24324152,2345|9,233364|6,142254,12345|6,14223144,1234|16,334352,23456|11,31435462,3456|13,24324152,2345|18,142254,12345|18,14223144,1234
12-1-simplificada-charlie-brown-jr|12 + 1|Charlie Brown Jr.|charlie-brown-jr.jpg 121-doze-mais-um-simplificada-charlie-brown-jr|12+1 (doze mais um)|Charlie Brown Jr.|charlie-brown-jr.jpg 333-simplificada-charlie-brown-jr|333|Charlie Brown Jr.|charlie-brown-jr.jpg a-banca-simplificada-charlie-brown-jr|A banca|Charlie Brown Jr.|charlie-brown-jr.jpg a-cera-simplificada-charlie-brown-jr|A cera|Charlie Brown Jr.|charlie-brown-jr.jpg a-estrada-simplificada-charlie-brown-jr|A estrada|Charlie Brown Jr.|charlie-brown-jr.jpg a-grande-volta-simplificada-charlie-brown-jr|A grande volta|Charlie Brown Jr.|charlie-brown-jr.jpg abagabalo-simplificada-charlie-brown-jr|Abagabalo|Charlie Brown Jr.|charlie-brown-jr.jpg abrir-seus-olhos-simplificada-charlie-brown-jr|Abrir seus olhos|Charlie Brown Jr.|charlie-brown-jr.jpg aquela-paz-simplificada-charlie-brown-jr|Aquela paz|Charlie Brown Jr.|charlie-brown-jr.jpg aquele-velho-carteado-e-alguma-manobrinhas-simplificada-charlie-brown-jr|Aquele velho carteado e alguma manobrinh|Charlie Brown Jr.|charlie-brown-jr.jpg aquele-velho-carteado-e-algumas-manobrinhas-simplificada-charlie-brown-jr|Aquele Velho Carteado e Algumas Manobrin|Charlie Brown Jr.|charlie-brown-jr.jpg baader-meinhof-blues-simplificada-charlie-brown-jr|Baader-meinhof blues|Charlie Brown Jr.|charlie-brown-jr.jpg bahia-simplificada-charlie-brown-jr|Bahia|Charlie Brown Jr.|charlie-brown-jr.jpg be-myself-simplificada-charlie-brown-jr|Be myself|Charlie Brown Jr.|charlie-brown-jr.jpg 177
simplificada-legiao-urbana|Legião Urbana|legiao-urbana.jpg simplificada-cassia-eller|Cássia Eller|cassia-eller.jpg simplificada-natiruts|Natiruts|natiruts.jpg?42 simplificada-capital-inicial|Capital Inicial|capital-inicial.jpg simplificada-jorge-e-mateus|Jorge e Mateus|jorge-e-mateus.jpg simplificada-nando-reis|Nando Reis|nando-reis.jpg simplificada-skank|Skank|skank.jpg simplificada-o-rappa|O Rappa|o-rappa.jpg simplificada-henrique-e-juliano|Henrique e Juliano|henrique-e-juliano.jpg simplificada-jota-quest|Jota Quest|jota-quest.jpg simplificada-marilia-mendonca|Marilia Mendonça|marilia-mendonca.jpg?79 simplificada-engenheiros-do-hawaii|Engenheiros do Hawaii|engenheiros-do-hawaii.jpg simplificada-matheus-e-kauan|Matheus e Kauan|matheus-e-kauan.jpg?53 simplificada-djavan|Djavan|djavan.jpg simplificada-armandinho|Armandinho|armandinho.jpg 50