Charlie Brown Jr.
3

Capo: 3

A afinação não precisa ser exatamente essa...vai da criatividade.


Introdução (Em, D)


E|-0------0------0------0----------|
B|-0------0------0------0----------|
G|-0------7------0------7-0-7-0-7-0|
D|-2------7------2------7-0-7-0-7-0|
A|-2------5------2------5-5-5-5-5-5|
E|-0-------------0-----------------|


SOLO:


E|------------------------|-----------------------------|
B|------------------------|-----------------------------|
G|-----10----10h12h10-----|-----10----10h12h10----------|
D|--12----12----------12--|--12----12----------8888888--|
A|------------------------|-----------------------------|
E|------------------------|-----------------------------|



E|------------------------|------------------------|
B|------------------------|------------------------|
G|--15-15-15-15-14-12-10--|--15-15-15-15-14-12h17--|
D|------------------------|------------------------|
A|------------------------|------------------------|
E|------------------------|------------------------|



E|------------------------|------------------------|
B|------------------------|-----11-------11--------|
G|--15-15-15-15-14-12-10--|--10----10-10----10-14--|
D|------------------------|------------------------|
A|------------------------|------------------------|
E|------------------------|------------------------|



E|------------------------|------------------------|
B|------------------------|------------------------|
G|--15-15-15-15-14-12-10--|--15-15-15-15-14-12h17--|
D|------------------------|------------------------|
A|------------------------|------------------------|
E|------------------------|------------------------|



E|------------------------|---------------------------------------------|
B|------------------------|-----11-------11-----------------------------|
G|--15-15-15-15-14-12-10--|--10----10-10----10-12-10-12-14-15-14-12-10--|
D|------------------------|---------------------------------------------|
A|------------------------|---------------------------------------------|
E|------------------------|---------------------------------------------|


Em                  D
Quero voltar pra você
Em                  D
Quero de volta o meu lugar
Em                  D
Não sou feliz sozinho
Em                  D
Não sei bem qual é o caminho
Em                  D
Eu não vou a lugar nenhum sem você
Em                  D
Não tenho lugar pra voltar
Em                  D
Eu estive só, estive sozinho
Em                  D
Quanto tempo foi perdido

C   B       A
Acende a luz
                           Em                        D
Que eu quero ver você aqui pra mim
C      B      A        Em      D
Essa é o dia que eu tanto esperei

C   B       A
Esquece tudo agora
Em                        D
Só existe a gente aqui
C   B       A
Então se deite e me beije
Em                  D
E se solte muito mais

Em                   D
Vou me embriagar de você
Em                   D
Eu vou me embriagar de você
Em                   D
Vou me embriagar de você
Em                   D
Eu vou me embriagar de você

Em                   D
Quero voltar pra você
Em                   D
Quero de volta o meu lugar
Em                   D
Não sou feliz sozinho
Em                   D
Não sei bem qual é o caminho
Em                   D
Eu não vou a lugar nenhum sem você
Em                   D
Não tenho lugar pra voltar
Em                   D
Eu estive só, estive sozinho
Em                   D
Quanto tempo foi perdido


C   B       A
Acende a luz
                           Em                        D
Que eu quero ver você aqui pra mim
C      B      A        Em      D
Essa é o dia que eu tanto esperei

C   B       A
Esquece tudo agora
Em                        D
Só existe a gente aqui
C   B       A
Então se deite e me beije
Em                  D
E se solte muito mais


Em                   D
Vou me embriagar de você
Em                   D
Eu vou me embriagar de você
Em                   D
Vou me embriagar de você
Em                   D
Eu vou me embriagar de você


Em                 D
Sorrir, chorar, viver
                   Em                     D
Tentar entender essas coisas malucas da vida
Em                D
Que bom que é ter você
                  Em                   D
Você é a melhor coisa que eu tenho na vida

Em                 D
Sorrir, chorar, viver
                   Em                   D
Tentar entender essas coisas malucas da vida
Em                D
Que bom que é ter você
                  Em                   D
Você é a melhor coisa que eu tenho na vida


Lembrando que fica show tocando todas as cordas... o ritmo é fácil.
Em|[0,"3.5.7",0,""] D|[0,"2.6.17",0,""] C|[0,"1.3.5",0,""] B|[0,"7.21.22",0,""] A|[0,"3.6.15",0,""]|[0,"3.6.20",0,""]|[0,"6.10.20",0,""]
12-1-teclado-charlie-brown-jr|12 + 1|Charlie Brown Jr.|charlie-brown-jr.jpg 121-doze-mais-um-teclado-charlie-brown-jr|12+1 (doze mais um)|Charlie Brown Jr.|charlie-brown-jr.jpg 333-teclado-charlie-brown-jr|333|Charlie Brown Jr.|charlie-brown-jr.jpg a-banca-teclado-charlie-brown-jr|A banca|Charlie Brown Jr.|charlie-brown-jr.jpg a-cera-teclado-charlie-brown-jr|A cera|Charlie Brown Jr.|charlie-brown-jr.jpg a-estrada-teclado-charlie-brown-jr|A estrada|Charlie Brown Jr.|charlie-brown-jr.jpg a-grande-volta-teclado-charlie-brown-jr|A grande volta|Charlie Brown Jr.|charlie-brown-jr.jpg abagabalo-teclado-charlie-brown-jr|Abagabalo|Charlie Brown Jr.|charlie-brown-jr.jpg abrir-seus-olhos-teclado-charlie-brown-jr|Abrir seus olhos|Charlie Brown Jr.|charlie-brown-jr.jpg aquela-paz-teclado-charlie-brown-jr|Aquela paz|Charlie Brown Jr.|charlie-brown-jr.jpg aquele-velho-carteado-e-alguma-manobrinhas-teclado-charlie-brown-jr|Aquele velho carteado e alguma manobrinh|Charlie Brown Jr.|charlie-brown-jr.jpg aquele-velho-carteado-e-algumas-manobrinhas-teclado-charlie-brown-jr|Aquele Velho Carteado e Algumas Manobrin|Charlie Brown Jr.|charlie-brown-jr.jpg baader-meinhof-blues-teclado-charlie-brown-jr|Baader-meinhof blues|Charlie Brown Jr.|charlie-brown-jr.jpg bahia-teclado-charlie-brown-jr|Bahia|Charlie Brown Jr.|charlie-brown-jr.jpg be-myself-teclado-charlie-brown-jr|Be myself|Charlie Brown Jr.|charlie-brown-jr.jpg 177
teclado-legiao-urbana|Legião Urbana|legiao-urbana.jpg teclado-cassia-eller|Cássia Eller|cassia-eller.jpg teclado-natiruts|Natiruts|natiruts.jpg?42 teclado-capital-inicial|Capital Inicial|capital-inicial.jpg teclado-jorge-e-mateus|Jorge e Mateus|jorge-e-mateus.jpg teclado-nando-reis|Nando Reis|nando-reis.jpg teclado-skank|Skank|skank.jpg teclado-o-rappa|O Rappa|o-rappa.jpg teclado-henrique-e-juliano|Henrique e Juliano|henrique-e-juliano.jpg teclado-jota-quest|Jota Quest|jota-quest.jpg teclado-marilia-mendonca|Marilia Mendonça|marilia-mendonca.jpg?79 teclado-engenheiros-do-hawaii|Engenheiros do Hawaii|engenheiros-do-hawaii.jpg teclado-matheus-e-kauan|Matheus e Kauan|matheus-e-kauan.jpg?53 teclado-djavan|Djavan|djavan.jpg teclado-armandinho|Armandinho|armandinho.jpg 50