When the darkness comes
Introdução:


    Am
E|---------------------------------------------------|
B|---------------------------------------------------|
G|----------2----------------------2-----------------|
D|----2-------------2------2---------------2---------|
A|-0-----0------0-------0------0-------0-------0-----|
E|---------------------------------------------------|



   Em
E|---------------------------------------------------|
B|---------------------------------------------------|
G|----------0----------------------0-----------------|
D|----2-------------2------2---------------2---------|
A|-2-----2------2-------2------2-------2-------2-----|
E|---------------------------------------------------|



    F
E|---------------------------------------------------|
B|---------------------------------------------------|
G|----------2----------------------2-----------------|
D|----3-------------3------3---------------3---------|
A|-3-----3------3-------3------3-------3-------3-----|
E|---------------------------------------------------|



    C
E|---------------------------------------------------|
B|---------------------------------------------------|
G|----------0----------------------0-----------------|
D|----2-------------2------2---------------2---------|
A|-3-----3------3-------3------3-------3-------3-----|
E|---------------------------------------------------|


Verse 1:

    Am
E|---------------------------------------------------|
B|---------------------------------------------------|
G|----------2----------------------2-----------------|
D|----2-------------2------2---------------2---------|
A|-0-----0------0-------0------0-------0-------0-----|
E|---------------------------------------------------|



   Em
E|---------------------------------------------------|
B|---------------------------------------------------|
G|----------0----------------------0-----------------|
D|----2-------------2------2---------------2---------|
A|-2-----2------2-------2------2-------2-------2-----|
E|---------------------------------------------------|



    F
E|---------------------------------------------------|
B|---------------------------------------------------|
G|----------2----------------------2-----------------|
D|----3-------------3------3---------------3---------|
A|-3-----3------3-------3------3-------3-------3-----|
E|---------------------------------------------------|



    C
E|---------------------------------------------------|
B|---------------------------------------------------|
G|----------0----------------------0-----------------|
D|----2-------------2------2---------------2---------|
A|-3-----3------3-------3------3-------3-------3-----|
E|---------------------------------------------------|



    Dm
E|---------------------------------------------------|
B|---------------------------------------------------|
G|----------2----------------------2-----------------|
D|----0-------------0------0---------------0---------|
A|-0-----0------0-------0------0-------0-------0-----|
E|---------------------------------------------------|



    F
E|---------------------------------------------------|
B|---------------------------------------------------|
G|----------2----------------------------------------|
D|----3-------------3--------------------------------|
A|-3-----3------3-------3----------------------------|
E|---------------------------------------------------|


Refrão:


    C
E|---------------------------------------------------|
B|---------------------------------------------------|
G|----------0----------------------0-----------------|
D|----2-------------2------2---------------2---------|
A|-3-----3------3-------3------3-------3-------3-----|
E|---------------------------------------------------|



   Em
E|---------------------------------------------------|
B|---------------------------------------------------|
G|----------0----------------------0-----------------|
D|----2-------------2------2---------------2---------|
A|-2-----2------2-------2------2-------2-------2-----|
E|---------------------------------------------------|



 Am
E|---------------------------------------------------|
B|---------------------------------------------------|
G|----------2----------------------2-----------------|
D|----2-------------2------2---------------2---------|
A|-0-----0------0-------0------0-------0-------0-----|
E|---------------------------------------------------|



    F
E|---------------------------------------------------|
B|---------------------------------------------------|
G|----------2----------------------2-----------------|
D|----3-------------3------3---------------3---------|
A|-3-----3------3-------3------3-------3-------3-----|
E|---------------------------------------------------|


(2x)


Verso 1:

Am             Em
Underneath the echoes
F             C
Buried in the shadows
Dm        F
There you were
Am              Em
Drawn into your mystery
F          C
I was just beginning
Dm          F
To see your ghost
Dm           F
But you must know I'll

Refrão:

C       Em
Be here waiting
Am     F
Hoping praying
C         Em
That this light will guide you
Am    F
Home
C           Em
When you're feeling
Am        F
Lost I'll leave my
C    Em            Am
Love hidden in the sun
F
For when the darkness comes

Am Em F C (repetir introdução)

Verso 2: (repetir dedilhado do verso 1)
Am          Em
Now the door is open
F           C
The world I knew is broken
Dm         F
There's no return
Am          Em
Now my heart is not scared
F                 C
Just knowing that you're out there
Dm      F
Watching me
Dm      F
So believe I'll

Refrão:
C       Em
Be here waiting
Am     F
Hoping praying
C         Em
That this light will guide you
Am    F
Home
C           Em
When you're feeling
Am        F
Lost I'll leave my
C    Em            Am
Love hidden in the sun
F
For when the darkness comes

Ponte:

Am Em F C
Am Em F C
Dm F
Dm F

Refrão:
C       Em
Be here waiting
Am     F
Hoping praying
C         Em
That this light will guide you
Am    F
Home
C           Em
When you're feeling
Am        F
Lost I'll leave my
C    Em            Am
Love hidden in the sun
F
For when the darkness comes

C Em Am F
C Em Am F

Am Em F C
|/midnight-bottle-cifra-colbie-caillat|Midnight bottle|Colbie Caillat|/tmp/colbie-caillat.jpg?91 |/bubbly-cifra-colbie-caillat|Bubbly|Colbie Caillat|/tmp/colbie-caillat.jpg?91 |/droplets-cifra-colbie-caillat|Droplets|Colbie Caillat|/tmp/colbie-caillat.jpg?91 |/fallin-for-you-cifra-colbie-caillat|Fallin' for you|Colbie Caillat|/tmp/colbie-caillat.jpg?91 |/i-do-cifra-colbie-caillat|I do|Colbie Caillat|/tmp/colbie-caillat.jpg?91 |/i-never-told-you-cifra-colbie-caillat|I never told you|Colbie Caillat|/tmp/colbie-caillat.jpg?91 |/try-cifra-colbie-caillat|Try|Colbie Caillat|/tmp/colbie-caillat.jpg?91 |/breathe-cifra-colbie-caillat|Breathe|Colbie Caillat|/tmp/colbie-caillat.jpg?91 |/never-gonna-let-you-down-cifra-colbie-caillat|Never gonna let you down|Colbie Caillat|/tmp/colbie-caillat.jpg?91 |/realize-cifra-colbie-caillat|Realize|Colbie Caillat|/tmp/colbie-caillat.jpg?91 7
|/cifras-jason-mraz|Jason mraz||/tmp/jason-mraz.jpg?72 |/cifras-bruno-mars|Bruno mars||/tmp/bruno-mars.jpg?35 |/cifras-ed-sheeran|Ed sheeran||/tmp/ed-sheeran.jpg?36 |/cifras-taylor-swift|Taylor swift||/tmp/taylor-swift.jpg?52 |/cifras-justin-bieber|Justin bieber||/tmp/justin-bieber.jpg?24 |/cifras-rebeldes|Rebeldes||/tmp/rebeldes.jpg |/cifras-glee|Glee||/tmp/glee.png?78 |/cifras-rihanna|Rihanna||/tmp/rihanna.jpg?1 |/cifras-elvis-presley|Elvis presley||/tmp/elvis-presley.jpg?11 |/cifras-lana-del-rey|Lana del rey||/tmp/lana-del-rey.jpg?5 5