Capo: 2

Intro 4x:  Em  G    D    A

Em         G                             D                    A
  Today is gonna be the day that they're gonna throw it back to you
Em            G                 D                     A
  By now you should've somehow realized what you gotta do
Em                  G        D              A
I don't believe that anybody feels the way I do
           C    D    A
About you now

Em               G                              D                   A
   Backbeat, the word is on the street that the fire in your heart is out
Em                 G                           D                 A
   I'm sure you've heard it all before but you never really had a doubt
Em                  G        D              A
I don't believe that anybody feels the way I do
           Em  G     D     A
about you now


   C                D               Em
E|---5------4h5-4------------------------|
B|-----5----------5----------------------|
G|------------------4-------------0----0-|
D|--------0-------------------0h2---0h2--|
A|-5---------------------0h2-------------|
E|---------------------0-----------------|

    C                D               Em
And all the roads we have to walk are winding


  C       D D D      Em
E|---5------4h5-4------------------------|
B|-----5----------5----------------------|
G|------------------4------------0-----0-|
D|--------0------------------0h2---0h2---|
A|-5---------------------0h2-------------|
E|---------------------0-----------------|

    C                   D                 Em
And all the lights that lead us there are blinding

   C      D D D
E|---5------4h5-4-----|
B|-----5----------5---|
G|------------------4-|
D|--------0-----------|
A|-5------------------|
E|--------------------|

  C             D
There are many things that I

   G        D    Em      G
E|---5--------5--------5--------5-----|
B|-----5--------5--------5--------5---|
G|-------0--------4--------0--------0-|
D|------------------------------------|
A|------------------------------------|
E|-5--------4--------0--------5-------|


   A
E|---------0------------0--------|
B|-----5-----5--------5---5------|
G|---4---4-----4----4-------4----|
D|-----------------------------4-|
A|-0--------------0--------------|
E|-------------------------------|


   A
E|---------0-------------------------|
B|-----5-----5-----------------------|
G|---4---4-----4------0-----0--------|
D|----------------0h4---0h4---0h4----|
A|-0---------------------------------|
E|-----------------------------------|


       G       D    Em        G          A
would like to say to    you but I don't know how

         C  Em  G             Em                   C    Em  G
Because maybe           You're gonna be the one that saves me
    Em   C   Em  G                    Em  C   Em   G  Em (deixe o Em7 soar)
And after all                You're my wonderwall

Em          G                            D                    A
  Today was gonna be the day but they'll never throw it back to you
Em            G                 D                         A
  By now you should've somehow realized what you're not to do
Em                  G        D              A
I don't believe that anybody feels the way I do
           Em  G  D  A
About you now


 C        D D D     Em
E|---5------4h5-4------------------------|
B|-----5----------5----------------------|
G|------------------4-------------0----0-|
D|--------0-------------------0h2---0h2--|
A|-5---------------------0h2-------------|
E|---------------------0-----------------|

    C                  D                  Em
And all the roads that lead you there were winding


 C        D D D   Em
E|---5------4h5-4------------------------|
B|-----5----------5----------------------|
G|------------------4-------------0----0-|
D|--------0-------------------0h2---0h2--|
A|-5---------------------0h2-------------|
E|---------------------0-----------------|

    C                   D                 Em
And all the lights that light the way are blinding

  C        D D D
E|---5------4h5-4-----|
B|-----5----------5---|
G|------------------4-|
D|--------0-----------|
A|-5------------------|
E|--------------------|

  C             D
There are many things that I

   G        D    Em      G
E|---5--------5--------5--------5-----|
B|-----5--------5--------5--------5---|
G|-------0--------4--------0--------0-|
D|------------------------------------|
A|------------------------------------|
E|-5--------4--------0--------5-------|


   A
E|---------0------------0--------|
B|-----5-----5--------5---5------|
G|---4---4-----4----4-------4----|
D|-----------------------------4-|
A|-0--------------0--------------|
E|-------------------------------|


   A
E|---------0-------------------------|
B|-----5-----5-----------------------|
G|---4---4-----4------0-----0--------|
D|----------------0h4---0h4---0h4----|
A|-0---------------------------------|
E|-----------------------------------|


       G       D    Em        G          A
would like to say to    you but I don't know how

        C  Em  G             Em                   C      Em  G
I said maybe           You're gonna be the one that saves me
    Em   C   Em  G                   Em   C  Em  G  Em
And after all                You're my wonderwall
Em|[0,"3.5.7",0,""] G|[0,"5.7.9",0,""] D|[0,"2.6.17",0,""] A|[0,"3.6.15",0,""]|[0,"3.6.20",0,""]|[0,"6.10.20",0,""] C|[0,"1.3.5",0,""]
a-bell-will-ring-teclado-oasis|A bell will ring|Oasis|oasis.jpg a-bell-will-ring-intro-teclado-oasis|A bell will ring intro|Oasis|oasis.jpg a-quick-peep-teclado-oasis|A quick peep|Oasis|oasis.jpg acquiesce-teclado-oasis|Acquiesce|Oasis|oasis.jpg aint-got-nothin-teclado-oasis|Ain't got nothin|Oasis|oasis.jpg alive-teclado-oasis|Alive|Oasis|oasis.jpg all-around-the-world-teclado-oasis|All around the world|Oasis|oasis.jpg all-around-the-world-intro-teclado-oasis|All around the world intro|Oasis|oasis.jpg all-you-need-is-love-teclado-oasis|All you need is love|Oasis|oasis.jpg angel-child-teclado-oasis|Angel child|Oasis|oasis.jpg as-long-as-theyve-got-cigarretes-in-hell-teclado-oasis|(as long as they've got) cigarretes in h|Oasis|oasis.jpg bag-it-up-teclado-oasis|Bag it up|Oasis|oasis.jpg be-here-now-teclado-oasis|Be here now|Oasis|oasis.jpg better-man-teclado-oasis|Better man|Oasis|oasis.jpg boneheads-bank-holiday-teclado-oasis|Bonehead's bank holiday|Oasis|oasis.jpg 182
teclado-coldplay|Coldplay|coldplay.jpg teclado-the-beatles|The Beatles|the-beatles.jpg teclado-nirvana|Nirvana|nirvana.jpg teclado-red-hot-chili-peppers|Red Hot Chili Peppers|red-hot-chili-peppers.jpg teclado-john-lennon|John Lennon|john-lennon.jpg teclado-ed-sheeran|Ed Sheeran|ed-sheeran.jpg?12 teclado-pearl-jam|Pearl Jam|pearl-jam.jpg?36 teclado-maroon-5|Maroon 5|maroon-5.jpg teclado-adele|Adele|adele.jpg teclado-elvis-presley|Elvis Presley|elvis-presley.jpg teclado-noel-gallagher|Noel Gallagher|noel-gallagher.jpg teclado-queen|Queen|queen.jpg teclado-justin-bieber|Justin Bieber|justin-bieber.jpg teclado-pink-floyd|Pink Floyd|pink-floyd.jpg teclado-green-day|Green Day|green-day.jpg 50